  0
SECTION
  2
HEADER
  9
$ACADVER
  1
AC1009
  9
$LUNITS
  70
2
  9
$LIMMIN
  10
2247653.95
  20
491038.74
  9
$LIMMAX
  10
2249049.20
  20
492237.28
  9
$EXTMIN
  10
2247653.95
  20
491038.74
  9
$EXTMAX
  10
2249049.20
  20
492237.28
  999
Created by Global Mapper
  999
Projection: State Plane Coordinate System
  999
Datum: NAD83
  999
Ground Units: feet
  999
ZONE: 3401
  999
STATE PLANE SCALE FACTOR: 1
  999
EXTRA FALSE EASTING (m): 0
  999
EXTRA FALSE NORTHING (m): 0
  999
EXTRA SCALE CENTER EASTING (m): 0
  999
EXTRA SCALE CENTER NORTHING (m): 0
  0
ENDSEC
  0
SECTION
  2
TABLES
  0
ENDSEC
  0
SECTION
  2
BLOCKS
  0
ENDSEC
  0
SECTION
  2
ENTITIES
  0
POLYLINE
  8
Jurisdictions_shp
  70
9
  66
1
  0
VERTEX
  8
Jurisdictions_shp
  70
32
  10
2247653.95
  20
491038.74
  30
-999999
  0
VERTEX
  8
Jurisdictions_shp
  70
32
  10
2247653.95
  20
492237.28
  30
-999999
  0
VERTEX
  8
Jurisdictions_shp
  70
32
  10
2249049.20
  20
492237.28
  30
-999999
  0
VERTEX
  8
Jurisdictions_shp
  70
32
  10
2249049.20
  20
491038.74
  30
-999999
  0
SEQEND
  8
Jurisdictions_shp
  0
TEXT
  8
Jurisdictions_shp
 62
7
  1
SPRINGFIELD
 40
2.20722
  10
2248351.58
  20
491638.01
  0
POLYLINE
  8
Parcels_shp
  70
9
  66
1
  0
VERTEX
  8
Parcels_shp
  70
32
  10
2249049.20
  20
492237.28
  30
-999999
  0
VERTEX
  8
Parcels_shp
  70
32
  10
2249049.20
  20
492175.87
  30
-999999
  0
VERTEX
  8
Parcels_shp
  70
32
  10
2249007.75
  20
492175.98
  30
-999999
  0
VERTEX
  8
Parcels_shp
  70
32
  10
2249007.98
  20
492237.28
  30
-999999
  0
SEQEND
  8
Parcels_shp
  0
TEXT
  8
Parcels_shp
 62
7
  1
5101896
 40
2.20722
  10
2249028.48
  20
492206.57
  0
POLYLINE
  8
Parcels_shp
  70
9
  66
1
  0
VERTEX
  8
Parcels_shp
  70
32
  10
2248808.68
  20
492237.28
  30
-999999
  0
VERTEX
  8
Parcels_shp
  70
32
  10
2248907.83
  20
492237.28
  30
-999999
  0
VERTEX
  8
Parcels_shp
  70
32
  10
2248907.42
  20
492151.13
  30
-999999
  0
VERTEX
  8
Parcels_shp
  70
32
  10
2248808.40
  20
492151.72
  30
-999999
  0
SEQEND
  8
Parcels_shp
  0
TEXT
  8
Parcels_shp
 62
7
  1
5102815
 40
2.20722
  10
2248858.11
  20
492194.20
  0
POLYLINE
  8
Parcels_shp
  70
9
  66
1
  0
VERTEX
  8
Parcels_shp
  70
32
  10
2248708.58
  20
492237.28
  30
-999999
  0
VERTEX
  8
Parcels_shp
  70
32
  10
2248808.68
  20
492237.28
  30
-999999
  0
VERTEX
  8
Parcels_shp
  70
32
  10
2248808.40
  20
492151.72
  30
-999999
  0
VERTEX
  8
Parcels_shp
  70
32
  10
2248708.24
  20
492152.31
  30
-999999
  0
SEQEND
  8
Parcels_shp
  0
TEXT
  8
Parcels_shp
 62
7
  1
5104031
 40
2.20722
  10
2248758.46
  20
492194.50
  0
POLYLINE
  8
Parcels_shp
  70
9
  66
1
  0
VERTEX
  8
Parcels_shp
  70
32
  10
2248606.35
  20
492237.28
  30
-999999
  0
VERTEX
  8
Parcels_shp
  70
32
  10
2248708.58
  20
492237.28
  30
-999999
  0
VERTEX
  8
Parcels_shp
  70
32
  10
2248708.24
  20
492152.31
  30
-999999
  0
VERTEX
  8
Parcels_shp
  70
32
  10
2248606.03
  20
492152.91
  30
-999999
  0
SEQEND
  8
Parcels_shp
  0
TEXT
  8
Parcels_shp
 62
7
  1
5106193
 40
2.20722
  10
2248657.31
  20
492194.79
  0
POLYLINE
  8
Parcels_shp
  70
9
  66
1
  0
VERTEX
  8
Parcels_shp
  70
32
  10
2247708.27
  20
492237.28
  30
-999999
  0
VERTEX
  8
Parcels_shp
  70
32
  10
2248077.44
  20
492237.28
  30
-999999
  0
VERTEX
  8
Parcels_shp
  70
32
  10
2248076.68
  20
492143.36
  30
-999999
  0
VERTEX
  8
Parcels_shp
  70
32
  10
2247707.99
  20
492146.08
  30
-999999
  0
SEQEND
  8
Parcels_shp
  0
TEXT
  8
Parcels_shp
 62
7
  1
5105224
 40
2.20722
  10
2247892.65
  20
492200.32
  0
POLYLINE
  8
Parcels_shp
  70
9
  66
1
  0
VERTEX
  8
Parcels_shp
  70
32
  10
2248127.58
  20
492237.28
  30
-999999
  0
VERTEX
  8
Parcels_shp
  70
32
  10
2248606.35
  20
492237.28
  30
-999999
  0
VERTEX
  8
Parcels_shp
  70
32
  10
2248606.03
  20
492152.91
  30
-999999
  0
VERTEX
  8
Parcels_shp
  70
32
  10
2248605.98
  20
492140.48
  30
-999999
  0
VERTEX
  8
Parcels_shp
  70
32
  10
2248126.88
  20
492143.04
  30
-999999
  0
SEQEND
  8
Parcels_shp
  0
TEXT
  8
Parcels_shp
 62
7
  1
5105396
 40
2.20722
  10
2248366.74
  20
492197.56
  0
POLYLINE
  8
Parcels_shp
  70
9
  66
1
  0
VERTEX
  8
Parcels_shp
  70
32
  10
2247653.95
  20
492038.77
  30
-999999
  0
VERTEX
  8
Parcels_shp
  70
32
  10
2247653.95
  20
492237.28
  30
-999999
  0
VERTEX
  8
Parcels_shp
  70
32
  10
2247708.27
  20
492237.28
  30
-999999
  0
VERTEX
  8
Parcels_shp
  70
32
  10
2247707.99
  20
492146.08
  30
-999999
  0
VERTEX
  8
Parcels_shp
  70
32
  10
2247706.94
  20
492059.34
  30
-999999
  0
VERTEX
  8
Parcels_shp
  70
32
  10
2247706.69
  20
492038.19
  30
-999999
  0
SEQEND
  8
Parcels_shp
  0
TEXT
  8
Parcels_shp
 62
7
  1
5104100
 40
2.20722
  10
2247681.11
  20
492137.74
  0
POLYLINE
  8
Parcels_shp
  70
1
  66
1
  0
VERTEX
  8
Parcels_shp
  10
2248076.68
  20
492143.36
  0
VERTEX
  8
Parcels_shp
  10
2248075.95
  20
492053.42
  0
VERTEX
  8
Parcels_shp
  10
2247706.94
  20
492059.34
  0
VERTEX
  8
Parcels_shp
  10
2247707.99
  20
492146.08
  0
VERTEX
  8
Parcels_shp
  10
2248076.68
  20
492143.36
  0
SEQEND
  8
Parcels_shp
  0
TEXT
  8
Parcels_shp
 62
7
  1
5108047
 40
2.20722
  10
2247891.87
  20
492099.84
  0
POLYLINE
  8
Parcels_shp
  70
1
  66
1
  0
VERTEX
  8
Parcels_shp
  10
2248605.98
  20
492140.48
  0
VERTEX
  8
Parcels_shp
  10
2248605.57
  20
492031.69
  0
VERTEX
  8
Parcels_shp
  10
2248126.06
  20
492033.80
  0
VERTEX
  8
Parcels_shp
  10
2248126.88
  20
492143.04
  0
VERTEX
  8
Parcels_shp
  10
2248605.98
  20
492140.48
  0
SEQEND
  8
Parcels_shp
  0
TEXT
  8
Parcels_shp
 62
7
  1
5102535
 40
2.20722
  10
2248366.12
  20
492087.48
  0
POLYLINE
  8
Parcels_shp
  70
1
  66
1
  0
VERTEX
  8
Parcels_shp
  10
2248075.78
  20
491921.05
  0
VERTEX
  8
Parcels_shp
  10
2248076.07
  20
491825.68
  0
VERTEX
  8
Parcels_shp
  10
2247833.78
  20
491827.64
  0
VERTEX
  8
Parcels_shp
  10
2247834.85
  20
491922.93
  0
VERTEX
  8
Parcels_shp
  10
2248075.78
  20
491921.05
  0
SEQEND
  8
Parcels_shp
  0
TEXT
  8
Parcels_shp
 62
7
  1
5107285
 40
2.20722
  10
2247955.11
  20
491874.40
  0
POLYLINE
  8
Parcels_shp
  70
1
  66
1
  0
VERTEX
  8
Parcels_shp
  10
2248604.93
  20
491916.92
  0
VERTEX
  8
Parcels_shp
  10
2248604.25
  20
491806.27
  0
VERTEX
  8
Parcels_shp
  10
2248126.55
  20
491810.21
  0
VERTEX
  8
Parcels_shp
  10
2248126.14
  20
491920.66
  0
VERTEX
  8
Parcels_shp
  10
2248604.93
  20
491916.92
  0
SEQEND
  8
Parcels_shp
  0
TEXT
  8
Parcels_shp
 62
7
  1
5107014
 40
2.20722
  10
2248365.48
  20
491863.58
  0
POLYLINE
  8
Parcels_shp
  70
9
  66
1
  0
VERTEX
  8
Parcels_shp
  70
32
  10
2247653.95
  20
491509.11
  30
-999999
  0
VERTEX
  8
Parcels_shp
  70
32
  10
2247653.95
  20
491618.16
  30
-999999
  0
VERTEX
  8
Parcels_shp
  70
32
  10
2247707.77
  20
491617.77
  30
-999999
  0
VERTEX
  8
Parcels_shp
  70
32
  10
2247708.20
  20
491508.48
  30
-999999
  0
SEQEND
  8
Parcels_shp
  0
TEXT
  8
Parcels_shp
 62
7
  1
5107438
 40
2.20722
  10
2247681.07
  20
491563.32
  0
POLYLINE
  8
Parcels_shp
  70
1
  66
1
  0
VERTEX
  8
Parcels_shp
  10
2248127.70
  20
491504.10
  0
VERTEX
  8
Parcels_shp
  10
2248127.27
  20
491618.86
  0
VERTEX
  8
Parcels_shp
  10
2248603.09
  20
491619.13
  0
VERTEX
  8
Parcels_shp
  10
2248602.40
  20
491507.18
  0
VERTEX
  8
Parcels_shp
  10
2248127.70
  20
491504.10
  0
SEQEND
  8
Parcels_shp
  0
TEXT
  8
Parcels_shp
 62
7
  1
5106337
 40
2.20722
  10
2248365.11
  20
491561.73
  0
POLYLINE
  8
Parcels_shp
  70
9
  66
1
  0
VERTEX
  8
Parcels_shp
  70
32
  10
2247653.95
  20
491395.28
  30
-999999
  0
VERTEX
  8
Parcels_shp
  70
32
  10
2247653.95
  20
491509.11
  30
-999999
  0
VERTEX
  8
Parcels_shp
  70
32
  10
2247708.20
  20
491508.48
  30
-999999
  0
VERTEX
  8
Parcels_shp
  70
32
  10
2247708.64
  20
491395.02
  30
-999999
  0
SEQEND
  8
Parcels_shp
  0
TEXT
  8
Parcels_shp
 62
7
  1
5107282
 40
2.20722
  10
2247681.30
  20
491452.06
  0
POLYLINE
  8
Parcels_shp
  70
1
  66
1
  0
VERTEX
  8
Parcels_shp
  10
2248602.40
  20
491507.18
  0
VERTEX
  8
Parcels_shp
  10
2248601.68
  20
491390.76
  0
VERTEX
  8
Parcels_shp
  10
2248128.12
  20
491393.02
  0
VERTEX
  8
Parcels_shp
  10
2248127.70
  20
491504.10
  0
VERTEX
  8
Parcels_shp
  10
2248602.40
  20
491507.18
  0
SEQEND
  8
Parcels_shp
  0
TEXT
  8
Parcels_shp
 62
7
  1
5106339
 40
2.20722
  10
2248364.97
  20
491449.10
  0
POLYLINE
  8
Parcels_shp
  70
1
  66
1
  0
VERTEX
  8
Parcels_shp
  10
2248077.04
  20
491504.24
  0
VERTEX
  8
Parcels_shp
  10
2248077.38
  20
491393.26
  0
VERTEX
  8
Parcels_shp
  10
2247906.61
  20
491394.07
  0
VERTEX
  8
Parcels_shp
  10
2247905.54
  20
491506.21
  0
VERTEX
  8
Parcels_shp
  10
2247967.02
  20
491505.51
  0
VERTEX
  8
Parcels_shp
  10
2248077.04
  20
491504.24
  0
SEQEND
  8
Parcels_shp
  0
TEXT
  8
Parcels_shp
 62
7
  1
5101843
 40
2.20722
  10
2247991.64
  20
491449.83
  0
POLYLINE
  8
Parcels_shp
  70
9
  66
1
  0
VERTEX
  8
Parcels_shp
  70
32
  10
2247653.95
  20
491287.25
  30
-999999
  0
VERTEX
  8
Parcels_shp
  70
32
  10
2247653.95
  20
491395.28
  30
-999999
  0
VERTEX
  8
Parcels_shp
  70
32
  10
2247708.64
  20
491395.02
  30
-999999
  0
VERTEX
  8
Parcels_shp
  70
32
  10
2247709.06
  20
491287.09
  30
-999999
  0
SEQEND
  8
Parcels_shp
  0
TEXT
  8
Parcels_shp
 62
7
  1
5105078
 40
2.20722
  10
2247681.51
  20
491341.19
  0
POLYLINE
  8
Parcels_shp
  70
1
  66
1
  0
VERTEX
  8
Parcels_shp
  10
2248601.68
  20
491390.76
  0
VERTEX
  8
Parcels_shp
  10
2248601.32
  20
491332.37
  0
VERTEX
  8
Parcels_shp
  10
2248128.32
  20
491337.65
  0
VERTEX
  8
Parcels_shp
  10
2248128.12
  20
491393.02
  0
VERTEX
  8
Parcels_shp
  10
2248601.68
  20
491390.76
  0
SEQEND
  8
Parcels_shp
  0
TEXT
  8
Parcels_shp
 62
7
  1
5106342
 40
2.20722
  10
2248364.87
  20
491362.81
  0
POLYLINE
  8
Parcels_shp
  70
9
  66
1
  0
VERTEX
  8
Parcels_shp
  70
32
  10
2247653.95
  20
491185.81
  30
-999999
  0
VERTEX
  8
Parcels_shp
  70
32
  10
2247653.95
  20
491287.25
  30
-999999
  0
VERTEX
  8
Parcels_shp
  70
32
  10
2247709.06
  20
491287.09
  30
-999999
  0
VERTEX
  8
Parcels_shp
  70
32
  10
2247709.46
  20
491185.87
  30
-999999
  0
SEQEND
  8
Parcels_shp
  0
TEXT
  8
Parcels_shp
 62
7
  1
5101373
 40
2.20722
  10
2247681.71
  20
491236.53
  0
POLYLINE
  8
Parcels_shp
  70
9
  66
1
  0
VERTEX
  8
Parcels_shp
  70
32
  10
2247653.95
  20
491179.56
  30
-999999
  0
VERTEX
  8
Parcels_shp
  70
32
  10
2247653.95
  20
491185.81
  30
-999999
  0
VERTEX
  8
Parcels_shp
  70
32
  10
2247709.46
  20
491185.87
  30
-999999
  0
VERTEX
  8
Parcels_shp
  70
32
  10
2247709.49
  20
491179.40
  30
-999999
  0
SEQEND
  8
Parcels_shp
  0
TEXT
  8
Parcels_shp
 62
7
  1
5102394
 40
2.20722
  10
2247681.72
  20
491182.63
  0
POLYLINE
  8
Parcels_shp
  70
9
  66
1
  0
VERTEX
  8
Parcels_shp
  70
32
  10
2247653.95
  20
491067.16
  30
-999999
  0
VERTEX
  8
Parcels_shp
  70
32
  10
2247653.95
  20
491179.56
  30
-999999
  0
VERTEX
  8
Parcels_shp
  70
32
  10
2247709.49
  20
491179.40
  30
-999999
  0
VERTEX
  8
Parcels_shp
  70
32
  10
2247709.93
  20
491066.75
  30
-999999
  0
SEQEND
  8
Parcels_shp
  0
TEXT
  8
Parcels_shp
 62
7
  1
5102395
 40
2.20722
  10
2247681.94
  20
491123.16
  0
POLYLINE
  8
Parcels_shp
  70
1
  66
1
  0
VERTEX
  8
Parcels_shp
  10
2248077.70
  20
491286.02
  0
VERTEX
  8
Parcels_shp
  10
2248078.02
  20
491178.28
  0
VERTEX
  8
Parcels_shp
  10
2248078.37
  20
491064.01
  0
VERTEX
  8
Parcels_shp
  10
2247709.93
  20
491066.75
  0
VERTEX
  8
Parcels_shp
  10
2247709.49
  20
491179.40
  0
VERTEX
  8
Parcels_shp
  10
2247709.46
  20
491185.87
  0
VERTEX
  8
Parcels_shp
  10
2247709.06
  20
491287.09
  0
VERTEX
  8
Parcels_shp
  10
2247708.64
  20
491395.02
  0
VERTEX
  8
Parcels_shp
  10
2247906.61
  20
491394.07
  0
VERTEX
  8
Parcels_shp
  10
2248077.38
  20
491393.26
  0
VERTEX
  8
Parcels_shp
  10
2248077.70
  20
491286.02
  0
SEQEND
  8
Parcels_shp
  0
TEXT
  8
Parcels_shp
 62
7
  1
5106343
 40
2.20722
  10
2247893.58
  20
491229.60
  0
POLYLINE
  8
Parcels_shp
  70
9
  66
1
  0
VERTEX
  8
Parcels_shp
  70
32
  10
2247653.95
  20
491038.74
  30
-999999
  0
VERTEX
  8
Parcels_shp
  70
32
  10
2247653.95
  20
491067.16
  30
-999999
  0
VERTEX
  8
Parcels_shp
  70
32
  10
2247709.93
  20
491066.75
  30
-999999
  0
VERTEX
  8
Parcels_shp
  70
32
  10
2247710.04
  20
491038.74
  30
-999999
  0
SEQEND
  8
Parcels_shp
  0
TEXT
  8
Parcels_shp
 62
7
  1
5105906
 40
2.20722
  10
2247681.99
  20
491052.95
  0
POLYLINE
  8
Parcels_shp
  70
9
  66
1
  0
VERTEX
  8
Parcels_shp
  70
32
  10
2247653.95
  20
491924.34
  30
-999999
  0
VERTEX
  8
Parcels_shp
  70
32
  10
2247653.95
  20
492038.77
  30
-999999
  0
VERTEX
  8
Parcels_shp
  70
32
  10
2247706.69
  20
492038.19
  30
-999999
  0
VERTEX
  8
Parcels_shp
  70
32
  10
2247706.57
  20
491923.93
  30
-999999
  0
SEQEND
  8
Parcels_shp
  0
TEXT
  8
Parcels_shp
 62
7
  1
5106593
 40
2.20722
  10
2247680.32
  20
491981.35
  0
POLYLINE
  8
Parcels_shp
  70
1
  66
1
  0
VERTEX
  8
Parcels_shp
  10
2247771.39
  20
491923.42
  0
VERTEX
  8
Parcels_shp
  10
2247706.57
  20
491923.93
  0
VERTEX
  8
Parcels_shp
  10
2247706.69
  20
492038.19
  0
VERTEX
  8
Parcels_shp
  10
2247706.94
  20
492059.34
  0
VERTEX
  8
Parcels_shp
  10
2248075.95
  20
492053.42
  0
VERTEX
  8
Parcels_shp
  10
2248075.79
  20
492034.19
  0
VERTEX
  8
Parcels_shp
  10
2248075.78
  20
491921.05
  0
VERTEX
  8
Parcels_shp
  10
2247834.85
  20
491922.93
  0
VERTEX
  8
Parcels_shp
  10
2247771.39
  20
491923.42
  0
SEQEND
  8
Parcels_shp
  0
TEXT
  8
Parcels_shp
 62
7
  1
5103871
 40
2.20722
  10
2247891.21
  20
491990.28
  0
POLYLINE
  8
Parcels_shp
  70
1
  66
1
  0
VERTEX
  8
Parcels_shp
  10
2248605.57
  20
492031.69
  0
VERTEX
  8
Parcels_shp
  10
2248604.93
  20
491916.92
  0
VERTEX
  8
Parcels_shp
  10
2248126.14
  20
491920.66
  0
VERTEX
  8
Parcels_shp
  10
2248126.06
  20
492033.80
  0
VERTEX
  8
Parcels_shp
  10
2248605.57
  20
492031.69
  0
SEQEND
  8
Parcels_shp
  0
TEXT
  8
Parcels_shp
 62
7
  1
5105458
 40
2.20722
  10
2248365.68
  20
491975.48
  0
POLYLINE
  8
Parcels_shp
  70
1
  66
1
  0
VERTEX
  8
Parcels_shp
  10
2248603.63
  20
491705.84
  0
VERTEX
  8
Parcels_shp
  10
2248603.74
  20
491723.29
  0
VERTEX
  8
Parcels_shp
  10
2248603.90
  20
491750.53
  0
VERTEX
  8
Parcels_shp
  10
2248604.25
  20
491806.27
  0
VERTEX
  8
Parcels_shp
  10
2248604.93
  20
491916.92
  0
VERTEX
  8
Parcels_shp
  10
2248605.57
  20
492031.69
  0
VERTEX
  8
Parcels_shp
  10
2248605.98
  20
492140.48
  0
VERTEX
  8
Parcels_shp
  10
2248606.03
  20
492152.91
  0
VERTEX
  8
Parcels_shp
  10
2248708.24
  20
492152.31
  0
VERTEX
  8
Parcels_shp
  10
2248705.57
  20
491507.85
  0
VERTEX
  8
Parcels_shp
  10
2248602.40
  20
491507.18
  0
VERTEX
  8
Parcels_shp
  10
2248603.09
  20
491619.13
  0
VERTEX
  8
Parcels_shp
  10
2248603.63
  20
491705.84
  0
SEQEND
  8
Parcels_shp
  0
TEXT
  8
Parcels_shp
 62
7
  1
5106336
 40
2.20722
  10
2248655.65
  20
491830.18
  0
POLYLINE
  8
Parcels_shp
  70
1
  66
1
  0
VERTEX
  8
Parcels_shp
  10
2248705.57
  20
491507.85
  0
VERTEX
  8
Parcels_shp
  10
2248708.24
  20
492152.31
  0
VERTEX
  8
Parcels_shp
  10
2248808.40
  20
492151.72
  0
VERTEX
  8
Parcels_shp
  10
2248806.22
  20
491508.51
  0
VERTEX
  8
Parcels_shp
  10
2248705.57
  20
491507.85
  0
SEQEND
  8
Parcels_shp
  0
TEXT
  8
Parcels_shp
 62
7
  1
5106335
 40
2.20722
  10
2248757.10
  20
491830.22
  0
POLYLINE
  8
Parcels_shp
  70
1
  66
1
  0
VERTEX
  8
Parcels_shp
  10
2248806.22
  20
491508.51
  0
VERTEX
  8
Parcels_shp
  10
2248808.40
  20
492151.72
  0
VERTEX
  8
Parcels_shp
  10
2248907.42
  20
492151.13
  0
VERTEX
  8
Parcels_shp
  10
2248906.79
  20
491509.16
  0
VERTEX
  8
Parcels_shp
  10
2248806.22
  20
491508.51
  0
SEQEND
  8
Parcels_shp
  0
TEXT
  8
Parcels_shp
 62
7
  1
5106338
 40
2.20722
  10
2248857.21
  20
491830.25
  0
POLYLINE
  8
Parcels_shp
  70
1
  66
1
  0
VERTEX
  8
Parcels_shp
  10
2249005.16
  20
491509.80
  0
VERTEX
  8
Parcels_shp
  10
2248906.79
  20
491509.16
  0
VERTEX
  8
Parcels_shp
  10
2248907.42
  20
492151.13
  0
VERTEX
  8
Parcels_shp
  10
2248908.79
  20
492151.12
  0
VERTEX
  8
Parcels_shp
  10
2248909.05
  20
492146.75
  0
VERTEX
  8
Parcels_shp
  10
2248909.68
  20
492142.43
  0
VERTEX
  8
Parcels_shp
  10
2248910.68
  20
492138.17
  0
VERTEX
  8
Parcels_shp
  10
2248912.05
  20
492134.01
  0
VERTEX
  8
Parcels_shp
  10
2248913.77
  20
492129.99
  0
VERTEX
  8
Parcels_shp
  10
2248915.83
  20
492126.14
  0
VERTEX
  8
Parcels_shp
  10
2248918.22
  20
492122.47
  0
VERTEX
  8
Parcels_shp
  10
2248920.92
  20
492119.03
  0
VERTEX
  8
Parcels_shp
  10
2248923.90
  20
492115.83
  0
VERTEX
  8
Parcels_shp
  10
2248927.15
  20
492112.90
  0
VERTEX
  8
Parcels_shp
  10
2248930.63
  20
492110.26
  0
VERTEX
  8
Parcels_shp
  10
2248934.34
  20
492107.93
  0
VERTEX
  8
Parcels_shp
  10
2248938.23
  20
492105.93
  0
VERTEX
  8
Parcels_shp
  10
2248942.28
  20
492104.28
  0
VERTEX
  8
Parcels_shp
  10
2248946.46
  20
492102.98
  0
VERTEX
  8
Parcels_shp
  10
2248950.73
  20
492102.05
  0
VERTEX
  8
Parcels_shp
  10
2248955.07
  20
492101.49
  0
VERTEX
  8
Parcels_shp
  10
2248959.44
  20
492101.30
  0
VERTEX
  8
Parcels_shp
  10
2248963.81
  20
492101.50
  0
VERTEX
  8
Parcels_shp
  10
2248968.14
  20
492102.07
  0
VERTEX
  8
Parcels_shp
  10
2248972.41
  20
492103.01
  0
VERTEX
  8
Parcels_shp
  10
2248976.59
  20
492104.32
  0
VERTEX
  8
Parcels_shp
  10
2248980.63
  20
492105.99
  0
VERTEX
  8
Parcels_shp
  10
2248984.52
  20
492108.00
  0
VERTEX
  8
Parcels_shp
  10
2248988.21
  20
492110.33
  0
VERTEX
  8
Parcels_shp
  10
2248991.70
  20
492112.98
  0
VERTEX
  8
Parcels_shp
  10
2248994.94
  20
492115.92
  0
VERTEX
  8
Parcels_shp
  10
2248997.91
  20
492119.13
  0
VERTEX
  8
Parcels_shp
  10
2249000.60
  20
492122.58
  0
VERTEX
  8
Parcels_shp
  10
2249002.98
  20
492126.25
  0
VERTEX
  8
Parcels_shp
  10
2249007.56
  20
492126.24
  0
VERTEX
  8
Parcels_shp
  10
2249005.16
  20
491509.80
  0
SEQEND
  8
Parcels_shp
  0
TEXT
  8
Parcels_shp
 62
7
  1
5102817
 40
2.20722
  10
2248956.76
  20
491830.29
  0
POLYLINE
  8
Parcels_shp
  70
9
  66
1
  0
VERTEX
  8
Parcels_shp
  70
32
  10
2249049.20
  20
492126.12
  30
-999999
  0
VERTEX
  8
Parcels_shp
  70
32
  10
2249049.20
  20
491510.08
  30
-999999
  0
VERTEX
  8
Parcels_shp
  70
32
  10
2249005.16
  20
491509.80
  30
-999999
  0
VERTEX
  8
Parcels_shp
  70
32
  10
2249007.56
  20
492126.24
  30
-999999
  0
SEQEND
  8
Parcels_shp
  0
TEXT
  8
Parcels_shp
 62
7
  1
5100410
 40
2.20722
  10
2249027.18
  20
491818.02
  0
POLYLINE
  8
Parcels_shp
  70
9
  66
1
  0
VERTEX
  8
Parcels_shp
  70
32
  10
2248907.83
  20
492237.28
  30
-999999
  0
VERTEX
  8
Parcels_shp
  70
32
  10
2249007.98
  20
492237.28
  30
-999999
  0
VERTEX
  8
Parcels_shp
  70
32
  10
2249007.75
  20
492175.98
  30
-999999
  0
VERTEX
  8
Parcels_shp
  70
32
  10
2249002.22
  20
492176.00
  30
-999999
  0
VERTEX
  8
Parcels_shp
  70
32
  10
2248999.89
  20
492179.63
  30
-999999
  0
VERTEX
  8
Parcels_shp
  70
32
  10
2248997.26
  20
492183.04
  30
-999999
  0
VERTEX
  8
Parcels_shp
  70
32
  10
2248994.35
  20
492186.21
  30
-999999
  0
VERTEX
  8
Parcels_shp
  70
32
  10
2248991.18
  20
492189.12
  30
-999999
  0
VERTEX
  8
Parcels_shp
  70
32
  10
2248987.76
  20
492191.75
  30
-999999
  0
VERTEX
  8
Parcels_shp
  70
32
  10
2248984.14
  20
492194.08
  30
-999999
  0
VERTEX
  8
Parcels_shp
  70
32
  10
2248980.33
  20
492196.09
  30
-999999
  0
VERTEX
  8
Parcels_shp
  70
32
  10
2248976.36
  20
492197.76
  30
-999999
  0
VERTEX
  8
Parcels_shp
  70
32
  10
2248972.26
  20
492199.08
  30
-999999
  0
VERTEX
  8
Parcels_shp
  70
32
  10
2248968.06
  20
492200.05
  30
-999999
  0
VERTEX
  8
Parcels_shp
  70
32
  10
2248963.79
  20
492200.66
  30
-999999
  0
VERTEX
  8
Parcels_shp
  70
32
  10
2248959.49
  20
492200.89
  30
-999999
  0
VERTEX
  8
Parcels_shp
  70
32
  10
2248955.19
  20
492200.76
  30
-999999
  0
VERTEX
  8
Parcels_shp
  70
32
  10
2248950.91
  20
492200.25
  30
-999999
  0
VERTEX
  8
Parcels_shp
  70
32
  10
2248946.69
  20
492199.39
  30
-999999
  0
VERTEX
  8
Parcels_shp
  70
32
  10
2248942.56
  20
492198.16
  30
-999999
  0
VERTEX
  8
Parcels_shp
  70
32
  10
2248938.55
  20
492196.58
  30
-999999
  0
VERTEX
  8
Parcels_shp
  70
32
  10
2248934.69
  20
492194.66
  30
-999999
  0
VERTEX
  8
Parcels_shp
  70
32
  10
2248931.01
  20
492192.42
  30
-999999
  0
VERTEX
  8
Parcels_shp
  70
32
  10
2248927.54
  20
492189.88
  30
-999999
  0
VERTEX
  8
Parcels_shp
  70
32
  10
2248924.30
  20
492187.04
  30
-999999
  0
VERTEX
  8
Parcels_shp
  70
32
  10
2248921.31
  20
492183.93
  30
-999999
  0
VERTEX
  8
Parcels_shp
  70
32
  10
2248918.60
  20
492180.59
  30
-999999
  0
VERTEX
  8
Parcels_shp
  70
32
  10
2248916.19
  20
492177.02
  30
-999999
  0
VERTEX
  8
Parcels_shp
  70
32
  10
2248914.09
  20
492173.25
  30
-999999
  0
VERTEX
  8
Parcels_shp
  70
32
  10
2248912.33
  20
492169.32
  30
-999999
  0
VERTEX
  8
Parcels_shp
  70
32
  10
2248910.90
  20
492165.26
  30
-999999
  0
VERTEX
  8
Parcels_shp
  70
32
  10
2248909.84
  20
492161.08
  30
-999999
  0
VERTEX
  8
Parcels_shp
  70
32
  10
2248909.13
  20
492156.83
  30
-999999
  0
VERTEX
  8
Parcels_shp
  70
32
  10
2248908.79
  20
492152.54
  30
-999999
  0
VERTEX
  8
Parcels_shp
  70
32
  10
2248908.79
  20
492151.12
  30
-999999
  0
VERTEX
  8
Parcels_shp
  70
32
  10
2248907.42
  20
492151.13
  30
-999999
  0
SEQEND
  8
Parcels_shp
  0
TEXT
  8
Parcels_shp
 62
7
  1
5106315
 40
2.20722
  10
2248957.70
  20
492194.20
  0
POLYLINE
  8
Parcels_shp
  70
9
  66
1
  0
VERTEX
  8
Parcels_shp
  70
32
  10
2248324.98
  20
491038.74
  30
-999999
  0
VERTEX
  8
Parcels_shp
  70
32
  10
2248129.44
  20
491038.74
  30
-999999
  0
VERTEX
  8
Parcels_shp
  70
32
  10
2248128.32
  20
491337.65
  30
-999999
  0
VERTEX
  8
Parcels_shp
  70
32
  10
2248601.32
  20
491332.37
  30
-999999
  0
VERTEX
  8
Parcels_shp
  70
32
  10
2248600.56
  20
491212.84
  30
-999999
  0
VERTEX
  8
Parcels_shp
  70
32
  10
2248515.62
  20
491206.12
  30
-999999
  0
SEQEND
  8
Parcels_shp
  0
TEXT
  8
Parcels_shp
 62
7
  1
5106345
 40
2.20722
  10
2248260.73
  20
491097.91
  0
POLYLINE
  8
Parcels_shp
  70
9
  66
1
  0
VERTEX
  8
Parcels_shp
  70
32
  10
2248599.17
  20
491038.74
  30
-999999
  0
VERTEX
  8
Parcels_shp
  70
32
  10
2248324.98
  20
491038.74
  30
-999999
  0
VERTEX
  8
Parcels_shp
  70
32
  10
2248515.62
  20
491206.12
  30
-999999
  0
VERTEX
  8
Parcels_shp
  70
32
  10
2248600.56
  20
491212.84
  30
-999999
  0
SEQEND
  8
Parcels_shp
  0
TEXT
  8
Parcels_shp
 62
7
  1
5110161
 40
2.20722
  10
2248462.77
  20
491125.79
  0
POLYLINE
  8
Parcels_shp
  70
1
  66
1
  0
VERTEX
  8
Parcels_shp
  10
2248126.87
  20
491726.21
  0
VERTEX
  8
Parcels_shp
  10
2248126.78
  20
491749.48
  0
VERTEX
  8
Parcels_shp
  10
2248126.55
  20
491810.21
  0
VERTEX
  8
Parcels_shp
  10
2248604.25
  20
491806.27
  0
VERTEX
  8
Parcels_shp
  10
2248603.90
  20
491750.53
  0
VERTEX
  8
Parcels_shp
  10
2248603.74
  20
491723.29
  0
VERTEX
  8
Parcels_shp
  10
2248126.87
  20
491726.21
  0
SEQEND
  8
Parcels_shp
  0
TEXT
  8
Parcels_shp
 62
7
  1
5105331
 40
2.20722
  10
2248365.36
  20
491766.87
  0
POLYLINE
  8
Parcels_shp
  70
1
  66
1
  0
VERTEX
  8
Parcels_shp
  10
2248603.63
  20
491705.84
  0
VERTEX
  8
Parcels_shp
  10
2248603.09
  20
491619.13
  0
VERTEX
  8
Parcels_shp
  10
2248127.27
  20
491618.86
  0
VERTEX
  8
Parcels_shp
  10
2248126.98
  20
491697.48
  0
VERTEX
  8
Parcels_shp
  10
2248126.95
  20
491705.33
  0
VERTEX
  8
Parcels_shp
  10
2248126.87
  20
491726.21
  0
VERTEX
  8
Parcels_shp
  10
2248603.74
  20
491723.29
  0
VERTEX
  8
Parcels_shp
  10
2248603.63
  20
491705.84
  0
SEQEND
  8
Parcels_shp
  0
TEXT
  8
Parcels_shp
 62
7
  1
5106334
 40
2.20722
  10
2248365.24
  20
491672.64
  0
POLYLINE
  8
Parcels_shp
  70
9
  66
1
  0
VERTEX
  8
Parcels_shp
  70
32
  10
2247653.95
  20
491751.62
  30
-999999
  0
VERTEX
  8
Parcels_shp
  70
32
  10
2247653.95
  20
491924.34
  30
-999999
  0
VERTEX
  8
Parcels_shp
  70
32
  10
2247706.57
  20
491923.93
  30
-999999
  0
VERTEX
  8
Parcels_shp
  70
32
  10
2247707.00
  20
491813.68
  30
-999999
  0
VERTEX
  8
Parcels_shp
  70
32
  10
2247707.25
  20
491751.33
  30
-999999
  0
SEQEND
  8
Parcels_shp
  0
TEXT
  8
Parcels_shp
 62
7
  1
5107719
 40
2.20722
  10
2247680.60
  20
491837.84
  0
POLYLINE
  8
Parcels_shp
  70
9
  66
1
  0
VERTEX
  8
Parcels_shp
  70
32
  10
2247653.95
  20
491618.16
  30
-999999
  0
VERTEX
  8
Parcels_shp
  70
32
  10
2247653.95
  20
491701.10
  30
-999999
  0
VERTEX
  8
Parcels_shp
  70
32
  10
2247707.45
  20
491700.69
  30
-999999
  0
VERTEX
  8
Parcels_shp
  70
32
  10
2247707.77
  20
491617.77
  30
-999999
  0
SEQEND
  8
Parcels_shp
  0
TEXT
  8
Parcels_shp
 62
7
  1
5101991
 40
2.20722
  10
2247680.86
  20
491659.44
  0
POLYLINE
  8
Parcels_shp
  70
1
  66
1
  0
VERTEX
  8
Parcels_shp
  10
2247708.64
  20
491395.02
  0
VERTEX
  8
Parcels_shp
  10
2247708.20
  20
491508.48
  0
VERTEX
  8
Parcels_shp
  10
2247707.77
  20
491617.77
  0
VERTEX
  8
Parcels_shp
  10
2247707.45
  20
491700.69
  0
VERTEX
  8
Parcels_shp
  10
2247903.70
  20
491699.19
  0
VERTEX
  8
Parcels_shp
  10
2247904.49
  20
491616.36
  0
VERTEX
  8
Parcels_shp
  10
2247905.54
  20
491506.21
  0
VERTEX
  8
Parcels_shp
  10
2247906.61
  20
491394.07
  0
VERTEX
  8
Parcels_shp
  10
2247708.64
  20
491395.02
  0
SEQEND
  8
Parcels_shp
  0
TEXT
  8
Parcels_shp
 62
7
  1
5109294
 40
2.20722
  10
2247806.60
  20
491547.46
  0
POLYLINE
  8
Parcels_shp
  70
1
  66
1
  0
VERTEX
  8
Parcels_shp
  10
2247707.25
  20
491751.33
  0
VERTEX
  8
Parcels_shp
  10
2247707.00
  20
491813.68
  0
VERTEX
  8
Parcels_shp
  10
2247706.57
  20
491923.93
  0
VERTEX
  8
Parcels_shp
  10
2247771.39
  20
491923.42
  0
VERTEX
  8
Parcels_shp
  10
2247769.53
  20
491813.16
  0
VERTEX
  8
Parcels_shp
  10
2247768.48
  20
491751.00
  0
VERTEX
  8
Parcels_shp
  10
2247707.25
  20
491751.33
  0
SEQEND
  8
Parcels_shp
  0
TEXT
  8
Parcels_shp
 62
7
  1
5105805
 40
2.20722
  10
2247738.43
  20
491837.54
  0
POLYLINE
  8
Parcels_shp
  70
1
  66
1
  0
VERTEX
  8
Parcels_shp
  10
2247769.53
  20
491813.16
  0
VERTEX
  8
Parcels_shp
  10
2247771.39
  20
491923.42
  0
VERTEX
  8
Parcels_shp
  10
2247834.85
  20
491922.93
  0
VERTEX
  8
Parcels_shp
  10
2247833.78
  20
491827.64
  0
VERTEX
  8
Parcels_shp
  10
2247833.61
  20
491812.63
  0
VERTEX
  8
Parcels_shp
  10
2247832.91
  20
491750.65
  0
VERTEX
  8
Parcels_shp
  10
2247768.48
  20
491751.00
  0
VERTEX
  8
Parcels_shp
  10
2247769.53
  20
491813.16
  0
SEQEND
  8
Parcels_shp
  0
TEXT
  8
Parcels_shp
 62
7
  1
5107752
 40
2.20722
  10
2247801.91
  20
491837.12
  0
POLYLINE
  8
Parcels_shp
  70
1
  66
1
  0
VERTEX
  8
Parcels_shp
  10
2247904.49
  20
491616.36
  0
VERTEX
  8
Parcels_shp
  10
2247903.70
  20
491699.19
  0
VERTEX
  8
Parcels_shp
  10
2247968.62
  20
491698.69
  0
VERTEX
  8
Parcels_shp
  10
2247967.94
  20
491615.91
  0
VERTEX
  8
Parcels_shp
  10
2247967.02
  20
491505.51
  0
VERTEX
  8
Parcels_shp
  10
2247905.54
  20
491506.21
  0
VERTEX
  8
Parcels_shp
  10
2247904.49
  20
491616.36
  0
SEQEND
  8
Parcels_shp
  0
TEXT
  8
Parcels_shp
 62
7
  1
5102094
 40
2.20722
  10
2247936.22
  20
491602.44
  0
POLYLINE
  8
Parcels_shp
  70
1
  66
1
  0
VERTEX
  8
Parcels_shp
  10
2247832.91
  20
491750.65
  0
VERTEX
  8
Parcels_shp
  10
2247833.61
  20
491812.63
  0
VERTEX
  8
Parcels_shp
  10
2247833.78
  20
491827.64
  0
VERTEX
  8
Parcels_shp
  10
2248076.07
  20
491825.68
  0
VERTEX
  8
Parcels_shp
  10
2248076.12
  20
491810.63
  0
VERTEX
  8
Parcels_shp
  10
2248076.30
  20
491749.33
  0
VERTEX
  8
Parcels_shp
  10
2247832.91
  20
491750.65
  0
SEQEND
  8
Parcels_shp
  0
TEXT
  8
Parcels_shp
 62
7
  1
5101686
 40
2.20722
  10
2247954.76
  20
491788.58
  0
POLYLINE
  8
Parcels_shp
  70
1
  66
1
  0
VERTEX
  8
Parcels_shp
  10
2247967.94
  20
491615.91
  0
VERTEX
  8
Parcels_shp
  10
2247968.62
  20
491698.69
  0
VERTEX
  8
Parcels_shp
  10
2248076.46
  20
491697.86
  0
VERTEX
  8
Parcels_shp
  10
2248076.71
  20
491615.13
  0
VERTEX
  8
Parcels_shp
  10
2248077.04
  20
491504.24
  0
VERTEX
  8
Parcels_shp
  10
2247967.02
  20
491505.51
  0
VERTEX
  8
Parcels_shp
  10
2247967.94
  20
491615.91
  0
SEQEND
  8
Parcels_shp
  0
TEXT
  8
Parcels_shp
 62
7
  1
5103137
 40
2.20722
  10
2248022.28
  20
491601.56
  0
POLYLINE
  8
Parcels_shp
  70
9
  66
1
  0
VERTEX
  8
Parcels_shp
  70
32
  10
2249049.20
  20
491038.74
  30
-999999
  0
VERTEX
  8
Parcels_shp
  70
32
  10
2248599.17
  20
491038.74
  30
-999999
  0
VERTEX
  8
Parcels_shp
  70
32
  10
2248600.56
  20
491212.84
  30
-999999
  0
VERTEX
  8
Parcels_shp
  70
32
  10
2248601.32
  20
491332.37
  30
-999999
  0
VERTEX
  8
Parcels_shp
  70
32
  10
2248601.68
  20
491390.76
  30
-999999
  0
VERTEX
  8
Parcels_shp
  70
32
  10
2248602.40
  20
491507.18
  30
-999999
  0
VERTEX
  8
Parcels_shp
  70
32
  10
2248705.57
  20
491507.85
  30
-999999
  0
VERTEX
  8
Parcels_shp
  70
32
  10
2248806.22
  20
491508.51
  30
-999999
  0
VERTEX
  8
Parcels_shp
  70
32
  10
2248906.79
  20
491509.16
  30
-999999
  0
VERTEX
  8
Parcels_shp
  70
32
  10
2249005.16
  20
491509.80
  30
-999999
  0
VERTEX
  8
Parcels_shp
  70
32
  10
2249049.20
  20
491510.08
  30
-999999
  0
SEQEND
  8
Parcels_shp
  0
TEXT
  8
Parcels_shp
 62
7
  1
5110731
 40
2.20722
  10
2248824.19
  20
491274.41
  0
POLYLINE
  8
Parcels_shp
  70
9
  66
1
  0
VERTEX
  8
Parcels_shp
  70
32
  10
2248078.45
  20
491038.74
  30
-999999
  0
VERTEX
  8
Parcels_shp
  70
32
  10
2247710.04
  20
491038.74
  30
-999999
  0
VERTEX
  8
Parcels_shp
  70
32
  10
2247709.93
  20
491066.75
  30
-999999
  0
VERTEX
  8
Parcels_shp
  70
32
  10
2248078.37
  20
491064.01
  30
-999999
  0
SEQEND
  8
Parcels_shp
  0
TEXT
  8
Parcels_shp
 62
7
  1
5106345
 40
2.20722
  10
2247894.19
  20
491052.74
  0
POLYLINE
  8
Buildings2000_shp
  70
1
  66
1
  0
VERTEX
  8
Buildings2000_shp
  10
2247921.61
  20
491539.78
  0
VERTEX
  8
Buildings2000_shp
  10
2247907.69
  20
491540.07
  0
VERTEX
  8
Buildings2000_shp
  10
2247907.90
  20
491550.21
  0
VERTEX
  8
Buildings2000_shp
  10
2247921.82
  20
491549.92
  0
VERTEX
  8
Buildings2000_shp
  10
2247921.61
  20
491539.78
  0
SEQEND
  8
Buildings2000_shp
  0
POLYLINE
  8
Buildings2000_shp
  70
1
  66
1
  0
VERTEX
  8
Buildings2000_shp
  10
2249021.58
  20
491669.03
  0
VERTEX
  8
Buildings2000_shp
  10
2249019.76
  20
491679.31
  0
VERTEX
  8
Buildings2000_shp
  10
2249027.50
  20
491680.68
  0
VERTEX
  8
Buildings2000_shp
  10
2249029.32
  20
491670.40
  0
VERTEX
  8
Buildings2000_shp
  10
2249021.58
  20
491669.03
  0
SEQEND
  8
Buildings2000_shp
  0
POLYLINE
  8
Buildings2000_shp
  70
1
  66
1
  0
VERTEX
  8
Buildings2000_shp
  10
2248278.73
  20
491886.62
  0
VERTEX
  8
Buildings2000_shp
  10
2248269.20
  20
491887.31
  0
VERTEX
  8
Buildings2000_shp
  10
2248270.62
  20
491906.91
  0
VERTEX
  8
Buildings2000_shp
  10
2248280.16
  20
491906.21
  0
VERTEX
  8
Buildings2000_shp
  10
2248278.73
  20
491886.62
  0
SEQEND
  8
Buildings2000_shp
  0
POLYLINE
  8
Buildings2000_shp
  70
1
  66
1
  0
VERTEX
  8
Buildings2000_shp
  10
2248225.54
  20
491923.28
  0
VERTEX
  8
Buildings2000_shp
  10
2248225.38
  20
491933.47
  0
VERTEX
  8
Buildings2000_shp
  10
2248214.83
  20
491933.30
  0
VERTEX
  8
Buildings2000_shp
  10
2248214.43
  20
491959.28
  0
VERTEX
  8
Buildings2000_shp
  10
2248226.21
  20
491959.47
  0
VERTEX
  8
Buildings2000_shp
  10
2248226.10
  20
491966.64
  0
VERTEX
  8
Buildings2000_shp
  10
2248241.01
  20
491966.88
  0
VERTEX
  8
Buildings2000_shp
  10
2248241.70
  20
491923.54
  0
VERTEX
  8
Buildings2000_shp
  10
2248225.54
  20
491923.28
  0
SEQEND
  8
Buildings2000_shp
  0
POLYLINE
  8
Buildings2000_shp
  70
1
  66
1
  0
VERTEX
  8
Buildings2000_shp
  10
2247896.50
  20
492149.55
  0
VERTEX
  8
Buildings2000_shp
  10
2247863.90
  20
492150.75
  0
VERTEX
  8
Buildings2000_shp
  10
2247864.52
  20
492167.50
  0
VERTEX
  8
Buildings2000_shp
  10
2247897.12
  20
492166.30
  0
VERTEX
  8
Buildings2000_shp
  10
2247896.50
  20
492149.55
  0
SEQEND
  8
Buildings2000_shp
  0
POLYLINE
  8
Buildings2000_shp
  70
1
  66
1
  0
VERTEX
  8
Buildings2000_shp
  10
2247714.70
  20
491577.31
  0
VERTEX
  8
Buildings2000_shp
  10
2247714.31
  20
491601.45
  0
VERTEX
  8
Buildings2000_shp
  10
2247745.16
  20
491601.94
  0
VERTEX
  8
Buildings2000_shp
  10
2247745.55
  20
491577.81
  0
VERTEX
  8
Buildings2000_shp
  10
2247714.70
  20
491577.31
  0
SEQEND
  8
Buildings2000_shp
  0
POLYLINE
  8
Buildings2000_shp
  70
1
  66
1
  0
VERTEX
  8
Buildings2000_shp
  10
2247823.57
  20
491424.77
  0
VERTEX
  8
Buildings2000_shp
  10
2247764.12
  20
491429.92
  0
VERTEX
  8
Buildings2000_shp
  10
2247768.71
  20
491482.95
  0
VERTEX
  8
Buildings2000_shp
  10
2247827.36
  20
491477.87
  0
VERTEX
  8
Buildings2000_shp
  10
2247839.01
  20
491612.52
  0
VERTEX
  8
Buildings2000_shp
  10
2247860.00
  20
491610.71
  0
VERTEX
  8
Buildings2000_shp
  10
2247859.09
  20
491600.21
  0
VERTEX
  8
Buildings2000_shp
  10
2247876.49
  20
491598.71
  0
VERTEX
  8
Buildings2000_shp
  10
2247874.24
  20
491572.65
  0
VERTEX
  8
Buildings2000_shp
  10
2247890.58
  20
491571.24
  0
VERTEX
  8
Buildings2000_shp
  10
2247880.28
  20
491452.21
  0
VERTEX
  8
Buildings2000_shp
  10
2247826.35
  20
491456.88
  0
VERTEX
  8
Buildings2000_shp
  10
2247823.57
  20
491424.77
  0
SEQEND
  8
Buildings2000_shp
  0
POLYLINE
  8
Buildings2000_shp
  70
1
  66
1
  0
VERTEX
  8
Buildings2000_shp
  10
2248133.75
  20
491356.14
  0
VERTEX
  8
Buildings2000_shp
  10
2248133.33
  20
491380.10
  0
VERTEX
  8
Buildings2000_shp
  10
2248172.32
  20
491380.79
  0
VERTEX
  8
Buildings2000_shp
  10
2248172.75
  20
491356.83
  0
VERTEX
  8
Buildings2000_shp
  10
2248133.75
  20
491356.14
  0
SEQEND
  8
Buildings2000_shp
  0
POLYLINE
  8
Buildings2000_shp
  70
1
  66
1
  0
VERTEX
  8
Buildings2000_shp
  10
2248258.05
  20
491787.97
  0
VERTEX
  8
Buildings2000_shp
  10
2248235.83
  20
491788.65
  0
VERTEX
  8
Buildings2000_shp
  10
2248236.48
  20
491809.86
  0
VERTEX
  8
Buildings2000_shp
  10
2248258.70
  20
491809.18
  0
VERTEX
  8
Buildings2000_shp
  10
2248258.05
  20
491787.97
  0
SEQEND
  8
Buildings2000_shp
  0
POLYLINE
  8
Buildings2000_shp
  70
1
  66
1
  0
VERTEX
  8
Buildings2000_shp
  10
2247723.67
  20
491773.89
  0
VERTEX
  8
Buildings2000_shp
  10
2247722.96
  20
491803.76
  0
VERTEX
  8
Buildings2000_shp
  10
2247735.42
  20
491804.06
  0
VERTEX
  8
Buildings2000_shp
  10
2247735.25
  20
491811.21
  0
VERTEX
  8
Buildings2000_shp
  10
2247760.07
  20
491811.80
  0
VERTEX
  8
Buildings2000_shp
  10
2247760.95
  20
491774.77
  0
VERTEX
  8
Buildings2000_shp
  10
2247723.67
  20
491773.89
  0
SEQEND
  8
Buildings2000_shp
  0
POLYLINE
  8
Buildings2000_shp
  70
1
  66
1
  0
VERTEX
  8
Buildings2000_shp
  10
2247808.35
  20
491780.56
  0
VERTEX
  8
Buildings2000_shp
  10
2247807.32
  20
491819.99
  0
VERTEX
  8
Buildings2000_shp
  10
2247826.13
  20
491820.48
  0
VERTEX
  8
Buildings2000_shp
  10
2247826.35
  20
491811.94
  0
VERTEX
  8
Buildings2000_shp
  10
2247833.48
  20
491812.13
  0
VERTEX
  8
Buildings2000_shp
  10
2247834.28
  20
491781.23
  0
VERTEX
  8
Buildings2000_shp
  10
2247808.35
  20
491780.56
  0
SEQEND
  8
Buildings2000_shp
  0
POLYLINE
  8
Buildings2000_shp
  70
1
  66
1
  0
VERTEX
  8
Buildings2000_shp
  10
2248000.00
  20
491797.56
  0
VERTEX
  8
Buildings2000_shp
  10
2247972.87
  20
491797.25
  0
VERTEX
  8
Buildings2000_shp
  10
2247972.58
  20
491822.45
  0
VERTEX
  8
Buildings2000_shp
  10
2248000.00
  20
491822.76
  0
VERTEX
  8
Buildings2000_shp
  10
2248005.46
  20
491822.82
  0
VERTEX
  8
Buildings2000_shp
  10
2248005.75
  20
491797.62
  0
VERTEX
  8
Buildings2000_shp
  10
2248000.00
  20
491797.56
  0
SEQEND
  8
Buildings2000_shp
  0
POLYLINE
  8
Buildings2000_shp
  70
1
  66
1
  0
VERTEX
  8
Buildings2000_shp
  10
2248265.47
  20
492036.34
  0
VERTEX
  8
Buildings2000_shp
  10
2248248.89
  20
492036.58
  0
VERTEX
  8
Buildings2000_shp
  10
2248249.29
  20
492046.47
  0
VERTEX
  8
Buildings2000_shp
  10
2248265.73
  20
492045.80
  0
VERTEX
  8
Buildings2000_shp
  10
2248265.47
  20
492036.34
  0
SEQEND
  8
Buildings2000_shp
  0
POLYLINE
  8
Buildings2000_shp
  70
1
  66
1
  0
VERTEX
  8
Buildings2000_shp
  10
2248299.09
  20
492048.59
  0
VERTEX
  8
Buildings2000_shp
  10
2248263.91
  20
492050.24
  0
VERTEX
  8
Buildings2000_shp
  10
2248264.86
  20
492070.48
  0
VERTEX
  8
Buildings2000_shp
  10
2248300.04
  20
492068.83
  0
VERTEX
  8
Buildings2000_shp
  10
2248299.09
  20
492048.59
  0
SEQEND
  8
Buildings2000_shp
  0
POLYLINE
  8
Buildings2000_shp
  70
1
  66
1
  0
VERTEX
  8
Buildings2000_shp
  10
2248930.12
  20
492045.30
  0
VERTEX
  8
Buildings2000_shp
  10
2248929.76
  20
492071.26
  0
VERTEX
  8
Buildings2000_shp
  10
2248960.18
  20
492071.68
  0
VERTEX
  8
Buildings2000_shp
  10
2248960.55
  20
492045.72
  0
VERTEX
  8
Buildings2000_shp
  10
2248930.12
  20
492045.30
  0
SEQEND
  8
Buildings2000_shp
  0
POLYLINE
  8
Buildings2000_shp
  70
1
  66
1
  0
VERTEX
  8
Buildings2000_shp
  10
2247699.63
  20
491068.42
  0
VERTEX
  8
Buildings2000_shp
  10
2247654.87
  20
491069.03
  0
VERTEX
  8
Buildings2000_shp
  10
2247655.29
  20
491099.65
  0
VERTEX
  8
Buildings2000_shp
  10
2247700.05
  20
491099.03
  0
VERTEX
  8
Buildings2000_shp
  10
2247699.63
  20
491068.42
  0
SEQEND
  8
Buildings2000_shp
  0
POLYLINE
  8
Buildings2000_shp
  70
1
  66
1
  0
VERTEX
  8
Buildings2000_shp
  10
2248211.49
  20
491327.26
  0
VERTEX
  8
Buildings2000_shp
  10
2248189.51
  20
491329.60
  0
VERTEX
  8
Buildings2000_shp
  10
2248191.17
  20
491345.22
  0
VERTEX
  8
Buildings2000_shp
  10
2248213.15
  20
491342.88
  0
VERTEX
  8
Buildings2000_shp
  10
2248211.49
  20
491327.26
  0
SEQEND
  8
Buildings2000_shp
  0
POLYLINE
  8
Buildings2000_shp
  70
1
  66
1
  0
VERTEX
  8
Buildings2000_shp
  10
2248042.43
  20
491472.56
  0
VERTEX
  8
Buildings2000_shp
  10
2248007.49
  20
491472.85
  0
VERTEX
  8
Buildings2000_shp
  10
2248007.73
  20
491501.37
  0
VERTEX
  8
Buildings2000_shp
  10
2248043.62
  20
491497.94
  0
VERTEX
  8
Buildings2000_shp
  10
2248051.43
  20
491497.87
  0
VERTEX
  8
Buildings2000_shp
  10
2248051.24
  20
491475.35
  0
VERTEX
  8
Buildings2000_shp
  10
2248042.43
  20
491472.56
  0
SEQEND
  8
Buildings2000_shp
  0
POLYLINE
  8
Buildings2000_shp
  70
1
  66
1
  0
VERTEX
  8
Buildings2000_shp
  10
2248302.08
  20
491347.76
  0
VERTEX
  8
Buildings2000_shp
  10
2248301.81
  20
491389.17
  0
VERTEX
  8
Buildings2000_shp
  10
2248352.24
  20
491389.51
  0
VERTEX
  8
Buildings2000_shp
  10
2248352.52
  20
491348.10
  0
VERTEX
  8
Buildings2000_shp
  10
2248302.08
  20
491347.76
  0
SEQEND
  8
Buildings2000_shp
  0
POLYLINE
  8
Buildings2000_shp
  70
1
  66
1
  0
VERTEX
  8
Buildings2000_shp
  10
2248217.42
  20
491641.80
  0
VERTEX
  8
Buildings2000_shp
  10
2248217.15
  20
491683.35
  0
VERTEX
  8
Buildings2000_shp
  10
2248262.80
  20
491683.65
  0
VERTEX
  8
Buildings2000_shp
  10
2248262.88
  20
491670.76
  0
VERTEX
  8
Buildings2000_shp
  10
2248254.55
  20
491670.70
  0
VERTEX
  8
Buildings2000_shp
  10
2248254.71
  20
491647.45
  0
VERTEX
  8
Buildings2000_shp
  10
2248232.30
  20
491647.30
  0
VERTEX
  8
Buildings2000_shp
  10
2248232.33
  20
491641.90
  0
VERTEX
  8
Buildings2000_shp
  10
2248217.42
  20
491641.80
  0
SEQEND
  8
Buildings2000_shp
  0
POLYLINE
  8
Buildings2000_shp
  70
1
  66
1
  0
VERTEX
  8
Buildings2000_shp
  10
2248249.64
  20
491407.18
  0
VERTEX
  8
Buildings2000_shp
  10
2248249.38
  20
491457.48
  0
VERTEX
  8
Buildings2000_shp
  10
2248238.80
  20
491457.43
  0
VERTEX
  8
Buildings2000_shp
  10
2248238.87
  20
491443.80
  0
VERTEX
  8
Buildings2000_shp
  10
2248219.69
  20
491443.70
  0
VERTEX
  8
Buildings2000_shp
  10
2248219.62
  20
491456.81
  0
VERTEX
  8
Buildings2000_shp
  10
2248162.71
  20
491456.52
  0
VERTEX
  8
Buildings2000_shp
  10
2248162.50
  20
491496.85
  0
VERTEX
  8
Buildings2000_shp
  10
2248283.71
  20
491497.48
  0
VERTEX
  8
Buildings2000_shp
  10
2248283.62
  20
491515.30
  0
VERTEX
  8
Buildings2000_shp
  10
2248159.05
  20
491514.66
  0
VERTEX
  8
Buildings2000_shp
  10
2248158.51
  20
491618.54
  0
VERTEX
  8
Buildings2000_shp
  10
2248299.42
  20
491619.28
  0
VERTEX
  8
Buildings2000_shp
  10
2248299.37
  20
491630.51
  0
VERTEX
  8
Buildings2000_shp
  10
2248278.68
  20
491630.41
  0
VERTEX
  8
Buildings2000_shp
  10
2248278.58
  20
491649.99
  0
VERTEX
  8
Buildings2000_shp
  10
2248298.35
  20
491650.09
  0
VERTEX
  8
Buildings2000_shp
  10
2248298.09
  20
491699.46
  0
VERTEX
  8
Buildings2000_shp
  10
2248571.66
  20
491700.88
  0
VERTEX
  8
Buildings2000_shp
  10
2248571.93
  20
491649.23
  0
VERTEX
  8
Buildings2000_shp
  10
2248362.59
  20
491648.15
  0
VERTEX
  8
Buildings2000_shp
  10
2248363.29
  20
491514.82
  0
VERTEX
  8
Buildings2000_shp
  10
2248304.33
  20
491514.51
  0
VERTEX
  8
Buildings2000_shp
  10
2248304.41
  20
491499.12
  0
VERTEX
  8
Buildings2000_shp
  10
2248363.26
  20
491499.42
  0
VERTEX
  8
Buildings2000_shp
  10
2248363.54
  20
491446.81
  0
VERTEX
  8
Buildings2000_shp
  10
2248303.48
  20
491446.50
  0
VERTEX
  8
Buildings2000_shp
  10
2248303.69
  20
491407.47
  0
VERTEX
  8
Buildings2000_shp
  10
2248249.64
  20
491407.18
  0
SEQEND
  8
Buildings2000_shp
  0
POLYLINE
  8
Buildings2000_shp
  70
1
  66
1
  0
VERTEX
  8
Buildings2000_shp
  10
2247964.34
  20
491590.26
  0
VERTEX
  8
Buildings2000_shp
  10
2247946.80
  20
491590.27
  0
VERTEX
  8
Buildings2000_shp
  10
2247946.81
  20
491596.76
  0
VERTEX
  8
Buildings2000_shp
  10
2247917.95
  20
491596.78
  0
VERTEX
  8
Buildings2000_shp
  10
2247917.99
  20
491638.19
  0
VERTEX
  8
Buildings2000_shp
  10
2247950.31
  20
491638.16
  0
VERTEX
  8
Buildings2000_shp
  10
2247950.30
  20
491623.50
  0
VERTEX
  8
Buildings2000_shp
  10
2247964.37
  20
491623.49
  0
VERTEX
  8
Buildings2000_shp
  10
2247964.34
  20
491590.26
  0
SEQEND
  8
Buildings2000_shp
  0
POLYLINE
  8
Buildings2000_shp
  70
1
  66
1
  0
VERTEX
  8
Buildings2000_shp
  10
2247713.52
  20
491614.87
  0
VERTEX
  8
Buildings2000_shp
  10
2247713.02
  20
491641.37
  0
VERTEX
  8
Buildings2000_shp
  10
2247745.50
  20
491641.99
  0
VERTEX
  8
Buildings2000_shp
  10
2247746.01
  20
491615.49
  0
VERTEX
  8
Buildings2000_shp
  10
2247713.52
  20
491614.87
  0
SEQEND
  8
Buildings2000_shp
  0
POLYLINE
  8
Buildings2000_shp
  70
1
  66
1
  0
VERTEX
  8
Buildings2000_shp
  10
2248054.33
  20
491603.12
  0
VERTEX
  8
Buildings2000_shp
  10
2248008.51
  20
491603.66
  0
VERTEX
  8
Buildings2000_shp
  10
2248008.91
  20
491637.02
  0
VERTEX
  8
Buildings2000_shp
  10
2248040.29
  20
491636.65
  0
VERTEX
  8
Buildings2000_shp
  10
2248040.44
  20
491649.08
  0
VERTEX
  8
Buildings2000_shp
  10
2248069.56
  20
491648.74
  0
VERTEX
  8
Buildings2000_shp
  10
2248069.22
  20
491620.12
  0
VERTEX
  8
Buildings2000_shp
  10
2248054.54
  20
491620.29
  0
VERTEX
  8
Buildings2000_shp
  10
2248054.33
  20
491603.12
  0
SEQEND
  8
Buildings2000_shp
  0
POLYLINE
  8
Buildings2000_shp
  70
1
  66
1
  0
VERTEX
  8
Buildings2000_shp
  10
2247826.86
  20
491592.08
  0
VERTEX
  8
Buildings2000_shp
  10
2247800.02
  20
491592.67
  0
VERTEX
  8
Buildings2000_shp
  10
2247801.38
  20
491654.36
  0
VERTEX
  8
Buildings2000_shp
  10
2247805.15
  20
491661.75
  0
VERTEX
  8
Buildings2000_shp
  10
2247828.11
  20
491661.24
  0
VERTEX
  8
Buildings2000_shp
  10
2247828.23
  20
491654.23
  0
VERTEX
  8
Buildings2000_shp
  10
2247826.86
  20
491592.08
  0
SEQEND
  8
Buildings2000_shp
  0
POLYLINE
  8
Buildings2000_shp
  70
1
  66
1
  0
VERTEX
  8
Buildings2000_shp
  10
2248192.25
  20
491756.48
  0
VERTEX
  8
Buildings2000_shp
  10
2248191.85
  20
491783.27
  0
VERTEX
  8
Buildings2000_shp
  10
2248223.70
  20
491783.74
  0
VERTEX
  8
Buildings2000_shp
  10
2248224.09
  20
491756.95
  0
VERTEX
  8
Buildings2000_shp
  10
2248192.25
  20
491756.48
  0
SEQEND
  8
Buildings2000_shp
  0
POLYLINE
  8
Buildings2000_shp
  70
1
  66
1
  0
VERTEX
  8
Buildings2000_shp
  10
2248010.97
  20
491769.49
  0
VERTEX
  8
Buildings2000_shp
  10
2248010.54
  20
491796.22
  0
VERTEX
  8
Buildings2000_shp
  10
2248051.58
  20
491796.88
  0
VERTEX
  8
Buildings2000_shp
  10
2248052.01
  20
491770.15
  0
VERTEX
  8
Buildings2000_shp
  10
2248010.97
  20
491769.49
  0
SEQEND
  8
Buildings2000_shp
  0
POLYLINE
  8
Buildings2000_shp
  70
1
  66
1
  0
VERTEX
  8
Buildings2000_shp
  10
2248201.27
  20
491822.67
  0
VERTEX
  8
Buildings2000_shp
  10
2248200.93
  20
491845.66
  0
VERTEX
  8
Buildings2000_shp
  10
2248219.94
  20
491846.03
  0
VERTEX
  8
Buildings2000_shp
  10
2248220.39
  20
491822.83
  0
VERTEX
  8
Buildings2000_shp
  10
2248201.27
  20
491822.67
  0
SEQEND
  8
Buildings2000_shp
  0
POLYLINE
  8
Buildings2000_shp
  70
1
  66
1
  0
VERTEX
  8
Buildings2000_shp
  10
2249047.94
  20
491839.89
  0
VERTEX
  8
Buildings2000_shp
  10
2249038.85
  20
491839.96
  0
VERTEX
  8
Buildings2000_shp
  10
2249038.94
  20
491851.29
  0
VERTEX
  8
Buildings2000_shp
  10
2249048.03
  20
491851.22
  0
VERTEX
  8
Buildings2000_shp
  10
2249047.94
  20
491839.89
  0
SEQEND
  8
Buildings2000_shp
  0
POLYLINE
  8
Buildings2000_shp
  70
1
  66
1
  0
VERTEX
  8
Buildings2000_shp
  10
2247805.31
  20
491831.53
  0
VERTEX
  8
Buildings2000_shp
  10
2247779.06
  20
491831.87
  0
VERTEX
  8
Buildings2000_shp
  10
2247779.51
  20
491865.28
  0
VERTEX
  8
Buildings2000_shp
  10
2247805.75
  20
491864.94
  0
VERTEX
  8
Buildings2000_shp
  10
2247805.31
  20
491831.53
  0
SEQEND
  8
Buildings2000_shp
  0
POLYLINE
  8
Buildings2000_shp
  70
1
  66
1
  0
VERTEX
  8
Buildings2000_shp
  10
2247735.10
  20
491839.31
  0
VERTEX
  8
Buildings2000_shp
  10
2247713.19
  20
491839.50
  0
VERTEX
  8
Buildings2000_shp
  10
2247713.43
  20
491867.63
  0
VERTEX
  8
Buildings2000_shp
  10
2247735.35
  20
491867.44
  0
VERTEX
  8
Buildings2000_shp
  10
2247735.10
  20
491839.31
  0
SEQEND
  8
Buildings2000_shp
  0
POLYLINE
  8
Buildings2000_shp
  70
1
  66
1
  0
VERTEX
  8
Buildings2000_shp
  10
2248005.62
  20
491832.54
  0
VERTEX
  8
Buildings2000_shp
  10
2248005.60
  20
491876.28
  0
VERTEX
  8
Buildings2000_shp
  10
2248043.39
  20
491876.30
  0
VERTEX
  8
Buildings2000_shp
  10
2248043.41
  20
491832.56
  0
VERTEX
  8
Buildings2000_shp
  10
2248005.62
  20
491832.54
  0
SEQEND
  8
Buildings2000_shp
  0
POLYLINE
  8
Buildings2000_shp
  70
1
  66
1
  0
VERTEX
  8
Buildings2000_shp
  10
2248173.24
  20
491842.37
  0
VERTEX
  8
Buildings2000_shp
  10
2248172.50
  20
491880.87
  0
VERTEX
  8
Buildings2000_shp
  10
2248199.48
  20
491881.38
  0
VERTEX
  8
Buildings2000_shp
  10
2248199.68
  20
491870.88
  0
VERTEX
  8
Buildings2000_shp
  10
2248205.59
  20
491870.99
  0
VERTEX
  8
Buildings2000_shp
  10
2248205.93
  20
491853.15
  0
VERTEX
  8
Buildings2000_shp
  10
2248199.88
  20
491853.04
  0
VERTEX
  8
Buildings2000_shp
  10
2248200.11
  20
491843.23
  0
VERTEX
  8
Buildings2000_shp
  10
2248173.24
  20
491842.37
  0
SEQEND
  8
Buildings2000_shp
  0
POLYLINE
  8
Buildings2000_shp
  70
1
  66
1
  0
VERTEX
  8
Buildings2000_shp
  10
2248000.00
  20
491880.39
  0
VERTEX
  8
Buildings2000_shp
  10
2247999.61
  20
491880.39
  0
VERTEX
  8
Buildings2000_shp
  10
2247999.52
  20
491893.89
  0
VERTEX
  8
Buildings2000_shp
  10
2248000.00
  20
491893.91
  0
VERTEX
  8
Buildings2000_shp
  10
2248018.89
  20
491894.01
  0
VERTEX
  8
Buildings2000_shp
  10
2248018.91
  20
491880.50
  0
VERTEX
  8
Buildings2000_shp
  10
2248000.00
  20
491880.39
  0
SEQEND
  8
Buildings2000_shp
  0
POLYLINE
  8
Buildings2000_shp
  70
1
  66
1
  0
VERTEX
  8
Buildings2000_shp
  10
2248054.61
  20
491896.31
  0
VERTEX
  8
Buildings2000_shp
  10
2248021.92
  20
491896.43
  0
VERTEX
  8
Buildings2000_shp
  10
2248021.94
  20
491904.02
  0
VERTEX
  8
Buildings2000_shp
  10
2248054.64
  20
491903.90
  0
VERTEX
  8
Buildings2000_shp
  10
2248054.61
  20
491896.31
  0
SEQEND
  8
Buildings2000_shp
  0
POLYLINE
  8
Buildings2000_shp
  70
1
  66
1
  0
VERTEX
  8
Buildings2000_shp
  10
2247952.25
  20
491938.03
  0
VERTEX
  8
Buildings2000_shp
  10
2247917.75
  20
491938.12
  0
VERTEX
  8
Buildings2000_shp
  10
2247917.80
  20
491955.62
  0
VERTEX
  8
Buildings2000_shp
  10
2247897.87
  20
491955.67
  0
VERTEX
  8
Buildings2000_shp
  10
2247897.96
  20
491990.25
  0
VERTEX
  8
Buildings2000_shp
  10
2247953.35
  20
491990.10
  0
VERTEX
  8
Buildings2000_shp
  10
2247955.13
  20
491968.63
  0
VERTEX
  8
Buildings2000_shp
  10
2247958.15
  20
491962.00
  0
VERTEX
  8
Buildings2000_shp
  10
2247958.09
  20
491939.13
  0
VERTEX
  8
Buildings2000_shp
  10
2247952.25
  20
491938.03
  0
SEQEND
  8
Buildings2000_shp
  0
POLYLINE
  8
Buildings2000_shp
  70
1
  66
1
  0
VERTEX
  8
Buildings2000_shp
  10
2248159.29
  20
491970.83
  0
VERTEX
  8
Buildings2000_shp
  10
2248159.07
  20
491995.19
  0
VERTEX
  8
Buildings2000_shp
  10
2248195.81
  20
491995.52
  0
VERTEX
  8
Buildings2000_shp
  10
2248195.88
  20
491987.84
  0
VERTEX
  8
Buildings2000_shp
  10
2248205.25
  20
491987.92
  0
VERTEX
  8
Buildings2000_shp
  10
2248205.36
  20
491975.25
  0
VERTEX
  8
Buildings2000_shp
  10
2248196.75
  20
491975.17
  0
VERTEX
  8
Buildings2000_shp
  10
2248159.29
  20
491970.83
  0
SEQEND
  8
Buildings2000_shp
  0
POLYLINE
  8
Buildings2000_shp
  70
9
  66
1
  0
VERTEX
  8
Buildings2000_shp
  70
32
  10
2249049.20
  20
492025.25
  30
-999999
  0
VERTEX
  8
Buildings2000_shp
  70
32
  10
2249049.20
  20
492001.52
  30
-999999
  0
VERTEX
  8
Buildings2000_shp
  70
32
  10
2249045.62
  20
492001.57
  30
-999999
  0
VERTEX
  8
Buildings2000_shp
  70
32
  10
2249045.68
  20
492006.06
  30
-999999
  0
VERTEX
  8
Buildings2000_shp
  70
32
  10
2249038.21
  20
492006.16
  30
-999999
  0
VERTEX
  8
Buildings2000_shp
  70
32
  10
2249038.11
  20
492000.64
  30
-999999
  0
VERTEX
  8
Buildings2000_shp
  70
32
  10
2249012.88
  20
492001.03
  30
-999999
  0
VERTEX
  8
Buildings2000_shp
  70
32
  10
2249013.21
  20
492026.14
  30
-999999
  0
VERTEX
  8
Buildings2000_shp
  70
32
  10
2249037.27
  20
492025.80
  30
-999999
  0
VERTEX
  8
Buildings2000_shp
  70
32
  10
2249044.72
  20
492024.93
  30
-999999
  0
SEQEND
  8
Buildings2000_shp
  0
POLYLINE
  8
Buildings2000_shp
  70
1
  66
1
  0
VERTEX
  8
Buildings2000_shp
  10
2248288.81
  20
492074.39
  0
VERTEX
  8
Buildings2000_shp
  10
2248258.48
  20
492076.17
  0
VERTEX
  8
Buildings2000_shp
  10
2248258.99
  20
492084.77
  0
VERTEX
  8
Buildings2000_shp
  10
2248251.70
  20
492085.20
  0
VERTEX
  8
Buildings2000_shp
  10
2248251.98
  20
492089.96
  0
VERTEX
  8
Buildings2000_shp
  10
2248243.42
  20
492090.47
  0
VERTEX
  8
Buildings2000_shp
  10
2248244.59
  20
492110.17
  0
VERTEX
  8
Buildings2000_shp
  10
2248290.76
  20
492107.44
  0
VERTEX
  8
Buildings2000_shp
  10
2248288.81
  20
492074.39
  0
SEQEND
  8
Buildings2000_shp
  0
POLYLINE
  8
Buildings2000_shp
  70
1
  66
1
  0
VERTEX
  8
Buildings2000_shp
  10
2247869.35
  20
492076.48
  0
VERTEX
  8
Buildings2000_shp
  10
2247868.73
  20
492119.32
  0
VERTEX
  8
Buildings2000_shp
  10
2247909.98
  20
492119.92
  0
VERTEX
  8
Buildings2000_shp
  10
2247910.27
  20
492100.60
  0
VERTEX
  8
Buildings2000_shp
  10
2247922.11
  20
492100.77
  0
VERTEX
  8
Buildings2000_shp
  10
2247922.46
  20
492077.25
  0
VERTEX
  8
Buildings2000_shp
  10
2247869.35
  20
492076.48
  0
SEQEND
  8
Buildings2000_shp
  0
POLYLINE
  8
Buildings2000_shp
  70
1
  66
1
  0
VERTEX
  8
Buildings2000_shp
  10
2247995.21
  20
492067.57
  0
VERTEX
  8
Buildings2000_shp
  10
2247952.92
  20
492067.63
  0
VERTEX
  8
Buildings2000_shp
  10
2247952.94
  20
492087.34
  0
VERTEX
  8
Buildings2000_shp
  10
2247964.80
  20
492087.32
  0
VERTEX
  8
Buildings2000_shp
  10
2247964.85
  20
492127.57
  0
VERTEX
  8
Buildings2000_shp
  10
2247995.29
  20
492127.53
  0
VERTEX
  8
Buildings2000_shp
  10
2247995.21
  20
492067.57
  0
SEQEND
  8
Buildings2000_shp
  0
POLYLINE
  8
Buildings2000_shp
  70
1
  66
1
  0
VERTEX
  8
Buildings2000_shp
  10
2248000.00
  20
492140.88
  0
VERTEX
  8
Buildings2000_shp
  10
2247990.23
  20
492140.55
  0
VERTEX
  8
Buildings2000_shp
  10
2247989.62
  20
492158.89
  0
VERTEX
  8
Buildings2000_shp
  10
2248000.00
  20
492159.23
  0
VERTEX
  8
Buildings2000_shp
  10
2248015.02
  20
492159.73
  0
VERTEX
  8
Buildings2000_shp
  10
2248015.63
  20
492141.40
  0
VERTEX
  8
Buildings2000_shp
  10
2248000.00
  20
492140.88
  0
SEQEND
  8
Buildings2000_shp
  0
POLYLINE
  8
Buildings2000_shp
  70
1
  66
1
  0
VERTEX
  8
Buildings2000_shp
  10
2248387.05
  20
492167.92
  0
VERTEX
  8
Buildings2000_shp
  10
2248385.92
  20
492186.80
  0
VERTEX
  8
Buildings2000_shp
  10
2248402.89
  20
492187.82
  0
VERTEX
  8
Buildings2000_shp
  10
2248404.02
  20
492168.94
  0
VERTEX
  8
Buildings2000_shp
  10
2248387.05
  20
492167.92
  0
SEQEND
  8
Buildings2000_shp
  0
POLYLINE
  8
Buildings2000_shp
  70
1
  66
1
  0
VERTEX
  8
Buildings2000_shp
  10
2248214.09
  20
492164.14
  0
VERTEX
  8
Buildings2000_shp
  10
2248174.33
  20
492165.55
  0
VERTEX
  8
Buildings2000_shp
  10
2248175.44
  20
492197.10
  0
VERTEX
  8
Buildings2000_shp
  10
2248215.21
  20
492195.70
  0
VERTEX
  8
Buildings2000_shp
  10
2248214.09
  20
492164.14
  0
SEQEND
  8
Buildings2000_shp
  0
POLYLINE
  8
Buildings2000_shp
  70
1
  66
1
  0
VERTEX
  8
Buildings2000_shp
  10
2248289.55
  20
492200.49
  0
VERTEX
  8
Buildings2000_shp
  10
2248271.71
  20
492200.86
  0
VERTEX
  8
Buildings2000_shp
  10
2248271.90
  20
492209.89
  0
VERTEX
  8
Buildings2000_shp
  10
2248289.74
  20
492209.52
  0
VERTEX
  8
Buildings2000_shp
  10
2248289.55
  20
492200.49
  0
SEQEND
  8
Buildings2000_shp
  0
POLYLINE
  8
Buildings2000_shp
  70
1
  66
1
  0
VERTEX
  8
Buildings2000_shp
  10
2248206.85
  20
492201.57
  0
VERTEX
  8
Buildings2000_shp
  10
2248206.83
  20
492217.97
  0
VERTEX
  8
Buildings2000_shp
  10
2248228.56
  20
492217.99
  0
VERTEX
  8
Buildings2000_shp
  10
2248228.57
  20
492201.59
  0
VERTEX
  8
Buildings2000_shp
  10
2248206.85
  20
492201.57
  0
SEQEND
  8
Buildings2000_shp
  0
POLYLINE
  8
Buildings2000_shp
  70
1
  66
1
  0
VERTEX
  8
Buildings2000_shp
  10
2248000.00
  20
492225.55
  0
VERTEX
  8
Buildings2000_shp
  10
2248019.69
  20
492225.51
  0
VERTEX
  8
Buildings2000_shp
  10
2248019.62
  20
492187.86
  0
VERTEX
  8
Buildings2000_shp
  10
2248000.00
  20
492187.90
  0
VERTEX
  8
Buildings2000_shp
  10
2247983.01
  20
492187.93
  0
VERTEX
  8
Buildings2000_shp
  10
2247983.03
  20
492201.39
  0
VERTEX
  8
Buildings2000_shp
  10
2247989.87
  20
492201.37
  0
VERTEX
  8
Buildings2000_shp
  10
2247989.92
  20
492225.57
  0
VERTEX
  8
Buildings2000_shp
  10
2248000.00
  20
492225.55
  0
SEQEND
  8
Buildings2000_shp
  0
POLYLINE
  8
Buildings2000_shp
  70
9
  66
1
  0
VERTEX
  8
Buildings2000_shp
  70
32
  10
2248964.37
  20
492237.28
  30
-999999
  0
VERTEX
  8
Buildings2000_shp
  70
32
  10
2248987.61
  20
492237.28
  30
-999999
  0
VERTEX
  8
Buildings2000_shp
  70
32
  10
2248988.01
  20
492225.36
  30
-999999
  0
VERTEX
  8
Buildings2000_shp
  70
32
  10
2248962.89
  20
492224.51
  30
-999999
  0
SEQEND
  8
Buildings2000_shp
  0
POLYLINE
  8
Buildings2000_shp
  70
9
  66
1
  0
VERTEX
  8
Buildings2000_shp
  70
32
  10
2248637.95
  20
492237.28
  30
-999999
  0
VERTEX
  8
Buildings2000_shp
  70
32
  10
2248681.99
  20
492237.28
  30
-999999
  0
VERTEX
  8
Buildings2000_shp
  70
32
  10
2248682.15
  20
492230.97
  30
-999999
  0
VERTEX
  8
Buildings2000_shp
  70
32
  10
2248638.14
  20
492229.86
  30
-999999
  0
SEQEND
  8
Buildings2000_shp
  0
POLYLINE
  8
Streets_shp
  66
1
 62
7
 39
1
  0
VERTEX
  8
Streets_shp
  10
2248657.04
  20
492146.91
  0
VERTEX
  8
Streets_shp
  10
2248788.25
  20
492147.29
  0
VERTEX
  8
Streets_shp
  10
2248920.28
  20
492147.67
  0
VERTEX
  8
Streets_shp
  10
2249049.20
  20
492148.03
  0
SEQEND
  8
Streets_shp
  0
TEXT
  8
Streets_shp
 62
7
  1
PROCTOR RD
 40
1.83935
 50
0.2
  10
2248854.27
  20
492147.48
  0
POLYLINE
  8
Streets_shp
  66
1
 62
7
 39
1
  0
VERTEX
  8
Streets_shp
  10
2248105.07
  20
491459.96
  0
VERTEX
  8
Streets_shp
  10
2248104.21
  20
491577.01
  0
VERTEX
  8
Streets_shp
  10
2248103.20
  20
491705.56
  0
VERTEX
  8
Streets_shp
  10
2248103.46
  20
491724.78
  0
SEQEND
  8
Streets_shp
  0
TEXT
  8
Streets_shp
 62
7
  1
LEE DR
 40
1.83935
 50
270.4
  10
2248103.70
  20
491641.29
  0
POLYLINE
  8
Streets_shp
  66
1
 62
7
 39
1
  0
VERTEX
  8
Streets_shp
  10
2248103.46
  20
491724.78
  0
VERTEX
  8
Streets_shp
  10
2248104.46
  20
491927.49
  0
VERTEX
  8
Streets_shp
  10
2248105.53
  20
492121.01
  0
VERTEX
  8
Streets_shp
  10
2248106.05
  20
492237.28
  0
SEQEND
  8
Streets_shp
  0
TEXT
  8
Streets_shp
 62
7
  1
LEE DR
 40
1.83935
 50
89.7
  10
2248103.96
  20
491826.14
  0
POLYLINE
  8
Streets_shp
  66
1
 62
7
 39
1
  0
VERTEX
  8
Streets_shp
  10
2247653.95
  20
491722.93
  0
VERTEX
  8
Streets_shp
  10
2247870.58
  20
491721.87
  0
VERTEX
  8
Streets_shp
  10
2248103.46
  20
491724.78
  0
SEQEND
  8
Streets_shp
  0
TEXT
  8
Streets_shp
 62
7
  1
IRONWOOD RD
 40
1.83935
 50
0.7
  10
2247987.02
  20
491723.33
  0
POLYLINE
  8
Road_Edges2000_shp
  66
1
 62
7
 39
1
  0
VERTEX
  8
Road_Edges2000_shp
  10
2248095.68
  20
492000.00
  0
VERTEX
  8
Road_Edges2000_shp
  10
2248097.74
  20
492211.93
  0
VERTEX
  8
Road_Edges2000_shp
  10
2248097.70
  20
492237.28
  0
SEQEND
  8
Road_Edges2000_shp
  0
POLYLINE
  8
Road_Edges2000_shp
  66
1
 62
7
 39
1
  0
VERTEX
  8
Road_Edges2000_shp
  10
2248114.66
  20
492000.00
  0
VERTEX
  8
Road_Edges2000_shp
  10
2248114.09
  20
492109.80
  0
VERTEX
  8
Road_Edges2000_shp
  10
2248116.08
  20
492222.14
  0
VERTEX
  8
Road_Edges2000_shp
  10
2248116.04
  20
492237.28
  0
SEQEND
  8
Road_Edges2000_shp
  0
POLYLINE
  8
Road_Edges2000_shp
  66
1
 62
7
 39
1
  0
VERTEX
  8
Road_Edges2000_shp
  10
2249049.20
  20
492139.20
  0
VERTEX
  8
Road_Edges2000_shp
  10
2248954.90
  20
492138.82
  0
VERTEX
  8
Road_Edges2000_shp
  10
2248832.58
  20
492142.56
  0
VERTEX
  8
Road_Edges2000_shp
  10
2248684.18
  20
492143.78
  0
VERTEX
  8
Road_Edges2000_shp
  10
2248684.15
  20
492161.47
  0
VERTEX
  8
Road_Edges2000_shp
  10
2249049.20
  20
492156.56
  0
SEQEND
  8
Road_Edges2000_shp
  0
POLYLINE
  8
Road_Edges2000_shp
  66
1
 62
7
 39
1
  0
VERTEX
  8
Road_Edges2000_shp
  10
2248000.00
  20
491714.86
  0
VERTEX
  8
Road_Edges2000_shp
  10
2247805.32
  20
491714.47
  0
VERTEX
  8
Road_Edges2000_shp
  10
2247697.67
  20
491715.73
  0
VERTEX
  8
Road_Edges2000_shp
  10
2247653.95
  20
491715.74
  0
SEQEND
  8
Road_Edges2000_shp
  0
POLYLINE
  8
Road_Edges2000_shp
  66
1
 62
7
 39
1
  0
VERTEX
  8
Road_Edges2000_shp
  10
2247653.95
  20
491734.73
  0
VERTEX
  8
Road_Edges2000_shp
  10
2247806.49
  20
491732.81
  0
VERTEX
  8
Road_Edges2000_shp
  10
2248000.00
  20
491734.22
  0
SEQEND
  8
Road_Edges2000_shp
  0
POLYLINE
  8
Road_Edges2000_shp
  66
1
 62
7
 39
1
  0
VERTEX
  8
Road_Edges2000_shp
  10
2248000.00
  20
491734.22
  0
VERTEX
  8
Road_Edges2000_shp
  10
2248051.02
  20
491734.82
  0
VERTEX
  8
Road_Edges2000_shp
  10
2248067.35
  20
491736.20
  0
VERTEX
  8
Road_Edges2000_shp
  10
2248076.37
  20
491739.89
  0
VERTEX
  8
Road_Edges2000_shp
  10
2248080.44
  20
491742.59
  0
VERTEX
  8
Road_Edges2000_shp
  10
2248087.34
  20
491749.48
  0
VERTEX
  8
Road_Edges2000_shp
  10
2248092.20
  20
491757.93
  0
VERTEX
  8
Road_Edges2000_shp
  10
2248094.70
  20
491767.35
  0
VERTEX
  8
Road_Edges2000_shp
  10
2248095.00
  20
491772.23
  0
VERTEX
  8
Road_Edges2000_shp
  10
2248096.10
  20
491842.94
  0
VERTEX
  8
Road_Edges2000_shp
  10
2248096.43
  20
491915.33
  0
VERTEX
  8
Road_Edges2000_shp
  10
2248095.68
  20
492000.00
  0
SEQEND
  8
Road_Edges2000_shp
  0
POLYLINE
  8
Road_Edges2000_shp
  66
1
 62
7
 39
1
  0
VERTEX
  8
Road_Edges2000_shp
  10
2248000.00
  20
491714.86
  0
VERTEX
  8
Road_Edges2000_shp
  10
2248071.08
  20
491715.12
  0
VERTEX
  8
Road_Edges2000_shp
  10
2248078.31
  20
491712.69
  0
VERTEX
  8
Road_Edges2000_shp
  10
2248084.58
  20
491708.34
  0
VERTEX
  8
Road_Edges2000_shp
  10
2248089.39
  20
491702.42
  0
VERTEX
  8
Road_Edges2000_shp
  10
2248091.12
  20
491699.02
  0
VERTEX
  8
Road_Edges2000_shp
  10
2248092.35
  20
491695.41
  0
VERTEX
  8
Road_Edges2000_shp
  10
2248093.52
  20
491644.63
  0
VERTEX
  8
Road_Edges2000_shp
  10
2248092.82
  20
491585.79
  0
VERTEX
  8
Road_Edges2000_shp
  10
2248095.17
  20
491464.88
  0
VERTEX
  8
Road_Edges2000_shp
  10
2248095.69
  20
491460.17
  0
VERTEX
  8
Road_Edges2000_shp
  10
2248112.74
  20
491460.23
  0
VERTEX
  8
Road_Edges2000_shp
  10
2248113.35
  20
491484.61
  0
VERTEX
  8
Road_Edges2000_shp
  10
2248112.67
  20
491590.88
  0
VERTEX
  8
Road_Edges2000_shp
  10
2248115.00
  20
491679.90
  0
VERTEX
  8
Road_Edges2000_shp
  10
2248114.49
  20
491729.73
  0
VERTEX
  8
Road_Edges2000_shp
  10
2248115.59
  20
491835.24
  0
VERTEX
  8
Road_Edges2000_shp
  10
2248114.66
  20
492000.00
  0
SEQEND
  8
Road_Edges2000_shp
  0
POLYLINE
  8
Drainage2000_shp
  66
1
 62
172
 39
1
  0
VERTEX
  8
Drainage2000_shp
  10
2249049.20
  20
491425.75
  0
VERTEX
  8
Drainage2000_shp
  10
2249031.73
  20
491416.60
  0
VERTEX
  8
Drainage2000_shp
  10
2248990.02
  20
491411.76
  0
VERTEX
  8
Drainage2000_shp
  10
2248955.90
  20
491413.31
  0
VERTEX
  8
Drainage2000_shp
  10
2248904.22
  20
491413.63
  0
VERTEX
  8
Drainage2000_shp
  10
2248882.52
  20
491411.56
  0
VERTEX
  8
Drainage2000_shp
  10
2248843.30
  20
491398.20
  0
VERTEX
  8
Drainage2000_shp
  10
2248830.50
  20
491385.12
  0
VERTEX
  8
Drainage2000_shp
  10
2248799.37
  20
491347.01
  0
VERTEX
  8
Drainage2000_shp
  10
2248781.84
  20
491327.90
  0
VERTEX
  8
Drainage2000_shp
  10
2248754.11
  20
491299.57
  0
VERTEX
  8
Drainage2000_shp
  10
2248733.50
  20
491284.73
  0
VERTEX
  8
Drainage2000_shp
  10
2248695.37
  20
491266.51
  0
VERTEX
  8
Drainage2000_shp
  10
2248681.27
  20
491262.13
  0
VERTEX
  8
Drainage2000_shp
  10
2248640.69
  20
491249.31
  0
VERTEX
  8
Drainage2000_shp
  10
2248635.18
  20
491245.79
  0
VERTEX
  8
Drainage2000_shp
  10
2248594.43
  20
491237.59
  0
VERTEX
  8
Drainage2000_shp
  10
2248559.34
  20
491233.38
  0
VERTEX
  8
Drainage2000_shp
  10
2248543.25
  20
491229.69
  0
VERTEX
  8
Drainage2000_shp
  10
2248511.26
  20
491219.20
  0
VERTEX
  8
Drainage2000_shp
  10
2248483.64
  20
491203.41
  0
VERTEX
  8
Drainage2000_shp
  10
2248473.50
  20
491187.33
  0
VERTEX
  8
Drainage2000_shp
  10
2248442.61
  20
491164.00
  0
VERTEX
  8
Drainage2000_shp
  10
2248420.67
  20
491146.35
  0
VERTEX
  8
Drainage2000_shp
  10
2248404.58
  20
491127.49
  0
VERTEX
  8
Drainage2000_shp
  10
2248356.35
  20
491089.76
  0
VERTEX
  8
Drainage2000_shp
  10
2248324.77
  20
491062.74
  0
VERTEX
  8
Drainage2000_shp
  10
2248299.04
  20
491038.74
  0
SEQEND
  8
Drainage2000_shp
  0
POLYLINE
  8
Drainage2000_shp
  66
1
 62
172
 39
1
  0
VERTEX
  8
Drainage2000_shp
  10
2249049.20
  20
491039.52
  0
VERTEX
  8
Drainage2000_shp
  10
2249047.16
  20
491038.74
  0
SEQEND
  8
Drainage2000_shp
  0
POLYLINE
  8
Drainage2000_shp
  66
1
 62
172
 39
1
  0
VERTEX
  8
Drainage2000_shp
  10
2248921.66
  20
491038.74
  0
VERTEX
  8
Drainage2000_shp
  10
2248920.96
  20
491039.66
  0
VERTEX
  8
Drainage2000_shp
  10
2248917.66
  20
491064.14
  0
VERTEX
  8
Drainage2000_shp
  10
2248910.21
  20
491096.40
  0
VERTEX
  8
Drainage2000_shp
  10
2248903.72
  20
491112.30
  0
VERTEX
  8
Drainage2000_shp
  10
2248885.76
  20
491126.65
  0
VERTEX
  8
Drainage2000_shp
  10
2248866.89
  20
491113.74
  0
VERTEX
  8
Drainage2000_shp
  10
2248860.53
  20
491081.73
  0
VERTEX
  8
Drainage2000_shp
  10
2248860.29
  20
491051.54
  0
VERTEX
  8
Drainage2000_shp
  10
2248865.45
  20
491038.74
  0
SEQEND
  8
Drainage2000_shp
  0
POLYLINE
  8
Drainage2000_shp
  66
1
 62
172
 39
1
  0
VERTEX
  8
Drainage2000_shp
  10
2249049.20
  20
491064.88
  0
VERTEX
  8
Drainage2000_shp
  10
2249043.48
  20
491062.70
  0
VERTEX
  8
Drainage2000_shp
  10
2249007.83
  20
491058.64
  0
VERTEX
  8
Drainage2000_shp
  10
2248983.58
  20
491048.23
  0
VERTEX
  8
Drainage2000_shp
  10
2248943.04
  20
491045.64
  0
VERTEX
  8
Drainage2000_shp
  10
2248936.88
  20
491068.34
  0
VERTEX
  8
Drainage2000_shp
  10
2248933.59
  20
491107.27
  0
VERTEX
  8
Drainage2000_shp
  10
2248911.96
  20
491128.20
  0
VERTEX
  8
Drainage2000_shp
  10
2248866.44
  20
491142.81
  0
VERTEX
  8
Drainage2000_shp
  10
2248859.10
  20
491126.76
  0
VERTEX
  8
Drainage2000_shp
  10
2248842.05
  20
491100.78
  0
VERTEX
  8
Drainage2000_shp
  10
2248833.94
  20
491067.87
  0
VERTEX
  8
Drainage2000_shp
  10
2248837.36
  20
491039.71
  0
VERTEX
  8
Drainage2000_shp
  10
2248837.91
  20
491038.74
  0
SEQEND
  8
Drainage2000_shp
  0
POINT
  8
H2OWells_sum_shp
  10
2248175.50
  20
491480.11
 30
1049
  0
TEXT
  8
H2OWells_sum_shp
 62
7
  1
2036290
 40
2.20722
  10
2248175.50
  20
491480.11
 30
1049
  0
POINT
  8
H2OWells_sum_shp
  10
2248603.95
  20
491423.15
 30
1037
  0
TEXT
  8
H2OWells_sum_shp
 62
7
  1
2036389
 40
2.20722
  10
2248603.95
  20
491423.15
 30
1037
  0
POINT
  8
H2OWells_sum_shp
  10
2248262.44
  20
491124.06
 30
1023
  0
TEXT
  8
H2OWells_sum_shp
 62
7
  1
2036285
 40
2.20722
  10
2248262.44
  20
491124.06
 30
1023
  0
POINT
  8
H2OWells_sum_shp
  10
2248350.45
  20
491150.58
 30
1021
  0
TEXT
  8
H2OWells_sum_shp
 62
7
  1
2036286
 40
2.20722
  10
2248350.45
  20
491150.58
 30
1021
  0
POINT
  8
H2OWells_sum_shp
  10
2248620.13
  20
491692.96
 30
1040
  0
TEXT
  8
H2OWells_sum_shp
 62
7
  1
2036287
 40
2.20722
  10
2248620.13
  20
491692.96
 30
1040
  0
POINT
  8
H2OWells_sum_shp
  10
2248561.37
  20
491524.68
 30
1028
  0
TEXT
  8
H2OWells_sum_shp
 62
7
  1
2036387
 40
2.20722
  10
2248561.37
  20
491524.68
 30
1028
  0
POINT
  8
H2OWells_sum_shp
  10
2248359.20
  20
491347.44
 30
1042
  0
TEXT
  8
H2OWells_sum_shp
 62
7
  1
2038406
 40
2.20722
  10
2248359.20
  20
491347.44
 30
1042
  0
POINT
  8
H2OWells_sum_shp
  10
2248171.37
  20
491123.00
 30
1021
  0
TEXT
  8
H2OWells_sum_shp
 62
7
  1
2036283
 40
2.20722
  10
2248171.37
  20
491123.00
 30
1021
  0
POINT
  8
H2OWells_sum_shp
  10
2248166.07
  20
491104.72
 30
1021
  0
TEXT
  8
H2OWells_sum_shp
 62
7
  1
2044961
 40
2.20722
  10
2248166.07
  20
491104.72
 30
1021
  0
POINT
  8
H2OWells_sum_shp
  10
2248766.90
  20
492052.83
 30
1057
  0
TEXT
  8
H2OWells_sum_shp
 62
7
  1
1017551
 40
2.20722
  10
2248766.90
  20
492052.83
 30
1057
  0
POINT
  8
H2OWells_sum_shp
  10
2248164.37
  20
491250.44
 30
1029
  0
TEXT
  8
H2OWells_sum_shp
 62
7
  1
2044963
 40
2.20722
  10
2248164.37
  20
491250.44
 30
1029
  0
POINT
  8
H2OWells_sum_shp
  10
2248270.05
  20
491419.27
 30
1048
  0
TEXT
  8
H2OWells_sum_shp
 62
7
  1
2036390
 40
2.20722
  10
2248270.05
  20
491419.27
 30
1048
  0
POINT
  8
H2OWells_sum_shp
  10
2248403.99
  20
491530.13
 30
1038
  0
TEXT
  8
H2OWells_sum_shp
 62
7
  1
2036279
 40
2.20722
  10
2248403.99
  20
491530.13
 30
1038
  0
POINT
  8
H2OWells_sum_shp
  10
2248399.87
  20
491409.85
 30
1038
  0
TEXT
  8
H2OWells_sum_shp
 62
7
  1
2036388
 40
2.20722
  10
2248399.87
  20
491409.85
 30
1038
  0
ENDSEC
  0
EOF
