  0
SECTION
  2
HEADER
  9
$ACADVER
  1
AC1014
  9
$HANDSEED
  5
4000000
  9
$EXTMIN
 10
2239599.672
 20
507062.8727
 30
0
  9
$EXTMAX
 10
2239964.878
 20
507779.0884
 30
0
  9
$PEXTMIN
 10
0
 20
0
 30
0
  9
$PEXTMAX
 10
3.059463790032168
 20
6.000000000000488
 30
0
  0
ENDSEC
  0
SECTION
  2
CLASSES
  0
CLASS
  1
IMAGEDEF
  2
AcDbRasterImageDef
  3
ISM
 90
     0
280
     0
281
     0
  0
CLASS
  1
IMAGE
  2
AcDbRasterImage
  3
ISM
 90
     2175
280
     0
281
     1
  0
ENDSEC
  0
SECTION
  2
TABLES
  0
TABLE
  2
VPORT
  5
8
330
0
100
AcDbSymbolTable
 70
     3
  0
VPORT
  5
2F
330
8
100
AcDbSymbolTableRecord
100
AcDbViewportTableRecord
  2
*ACTIVE
 70
     0
 10
0.0
 20
0.0
 11
1.0
 21
1.0
 12
9.22892441860465
 22
4.5
 13
0.0
 23
0.0
 14
0.5
 24
0.5
 15
0.5
 25
0.5
 16
0.0
 26
0.0
 36
1.0
 17
0.0
 27
0.0
 37
0.0
 40
9.0
 41
2.050872093023255
 42
50.0
 43
0.0
 44
0.0
 50
0.0
 51
0.0
 71
     0
 72
   100
 73
     1
 74
     3
 75
     0
 76
     0
 77
     0
 78
     0
  0
ENDTAB
  0
TABLE
  2
LAYER
  5
2
330
0
100
AcDbSymbolTable
 70
     1
  0
LAYER
  5
10
330
2
100
AcDbSymbolTableRecord
100
AcDbLayerTableRecord
  2
0
 70
     0
 62
     7
  6
CONTINUOUS
  0
ENDTAB
  0
TABLE
  2
STYLE
  5
3
330
0
100
AcDbSymbolTable
 70
     1
  0
STYLE
  5
11
330
3
100
AcDbSymbolTableRecord
100
AcDbTextStyleTableRecord
  2
STANDARD
 70
     0
 40
0.0
 41
1.0
 50
0.0
 71
     0
 42
0.2
  3
txt
  4

  0
ENDTAB
  0
TABLE
  2
VIEW
  5
6
330
0
100
AcDbSymbolTable
 70
     0
  0
ENDTAB
  0
TABLE
  2
UCS
  5
7
330
0
100
AcDbSymbolTable
 70
     0
  0
ENDTAB
  0
TABLE
  2
APPID
  5
9
330
0
100
AcDbSymbolTable
 70
     1
  0
APPID
  5
12
330
9
100
AcDbSymbolTableRecord
100
AcDbRegAppTableRecord
  2
ACAD
 70
     0
  0
ENDTAB
  0
TABLE
  2
DIMSTYLE
  5
A
330
0
100
AcDbSymbolTable
 70
     1
  0
DIMSTYLE
105
27
330
A
100
AcDbSymbolTableRecord
100
AcDbDimStyleTableRecord
  2
STANDARD
 70
     0
  3

  4

  5

  6

  7

 40
1.0
 41
0.18
 42
0.0625
 43
0.38
 44
0.18
 45
0.0
 46
0.0
 47
0.0
 48
0.0
140
0.18
141
0.09
142
0.0
143
25.4
144
1.0
145
0.0
146
1.0
147
0.09
 71
     0
 72
     0
 73
     1
 74
     1
 75
     0
 76
     0
 77
     0
 78
     0
170
     0
171
     2
172
     0
173
     0
174
     0
175
     0
176
     0
177
     0
178
     0
270
     2
271
     4
272
     4
273
     2
274
     2
340
11
275
     0
280
     0
281
     0
282
     0
283
     1
284
     0
285
     0
286
     0
287
     3
288
     0
  0
ENDTAB
  0
TABLE
  2
BLOCK_RECORD
  5
1
330
0
100
AcDbSymbolTable
 70
     1
  0
BLOCK_RECORD
  5
1F
102
{ACAD_XDICTIONARY
360
52
102
}
330
1
100
AcDbSymbolTableRecord
100
AcDbBlockTableRecord
  2
*MODEL_SPACE
  0
BLOCK_RECORD
  5
1B
102
{ACAD_XDICTIONARY
360
50
102
}
330
1
100
AcDbSymbolTableRecord
100
AcDbBlockTableRecord
  2
*PAPER_SPACE
  0
ENDTAB
  0
TABLE
  2
LTYPE
  5
2000000
100
AcDbSymbolTable
 70
1
  0
LTYPE
  5
2000001
100
AcDbSymbolTableRecord
100
AcDbLinetypeTableRecord
  2
BYBLOCK
 70
0
  3

 72
65
 73
0
 40
0
  0
LTYPE
  5
2000002
100
AcDbSymbolTableRecord
100
AcDbLinetypeTableRecord
  2
BYLAYER
 70
0
  3

 72
65
 73
0
 40
0
  0
LTYPE
  5
2000003
100
AcDbSymbolTableRecord
100
AcDbLinetypeTableRecord
  2
CONTINUOUS
 70
64
  3
CONTINUOUS
 72
65
 73
0
 40
0
  0
ENDTAB
  0
ENDSEC
  0
SECTION
  2
BLOCKS
  0
BLOCK
  5
20
330
1F
100
AcDbEntity
  8
0
100
AcDbBlockBegin
  2
*MODEL_SPACE
 70
     0
 10
0.0
 20
0.0
 30
0.0
  3
*MODEL_SPACE
  1

  0
ENDBLK
  5
21
330
1F
100
AcDbEntity
  8
0
100
AcDbBlockEnd
  0
BLOCK
  5
1C
330
1B
100
AcDbEntity
 67
     1
  8
0
100
AcDbBlockBegin
  2
*PAPER_SPACE
 70
     0
 10
0.0
 20
0.0
 30
0.0
  3
*PAPER_SPACE
  1

  0
ENDBLK
  5
1D
330
1B
100
AcDbEntity
 67
     1
  8
0
100
AcDbBlockEnd
  0
ENDSEC
  0
SECTION
  2
ENTITIES
  0
LWPOLYLINE
  5
2010000
100
AcDbEntity
100
AcDbPolyline
  8
Contours-GWCdata.grd
 62
7
 43
0
 90
42
 70
128
 10
2239822.114711693
 20
507779.0884
 10
2239823.615504582
 20
507771.8538979798
 10
2239825.129089914
 20
507764.6193959595
 10
2239826.659412524
 20
507757.3848939394
 10
2239827.92575
 20
507751.5559178329
 10
2239828.261075642
 20
507750.1503919191
 10
2239830.104423802
 20
507742.915889899
 10
2239831.976013468
 20
507735.6813878787
 10
2239833.884210847
 20
507728.4468858586
 10
2239835.844992761
 20
507721.2123838383
 10
2239837.889709537
 20
507713.9778818181
 10
2239839.3384375
 20
507709.3579047907
 10
2239840.223959995
 20
507706.7433797979
 10
2239842.991022018
 20
507699.5088777777
 10
2239845.961805683
 20
507692.2743757576
 10
2239849.528821944
 20
507685.0398737373
 10
2239850.751125
 20
507683.4367341719
 10
2239854.847714088
 20
507677.8053717171
 10
2239862.1638125
 20
507673.0583238422
 10
2239873.5765
 20
507673.9701207258
 10
2239881.304528431
 20
507677.8053717171
 10
2239884.9891875
 20
507680.8472402015
 10
2239890.346043796
 20
507685.0398737373
 10
2239896.401875
 20
507691.0131706545
 10
2239897.772810882
 20
507692.2743757576
 10
2239904.395788764
 20
507699.5088777777
 10
2239907.8145625
 20
507703.5278067553
 10
2239910.652321565
 20
507706.7433797979
 10
2239916.566955204
 20
507713.9778818181
 10
2239919.22725
 20
507717.3685765697
 10
2239922.287137813
 20
507721.2123838383
 10
2239927.820555253
 20
507728.4468858586
 10
2239930.6399375
 20
507732.2125341505
 10
2239933.247104472
 20
507735.6813878787
 10
2239938.520976782
 20
507742.915889899
 10
2239942.052625
 20
507747.7759522319
 10
2239943.776134594
 20
507750.1503919191
 10
2239948.855926652
 20
507757.3848939394
 10
2239953.4653125
 20
507763.8568064504
 10
2239954.006657871
 20
507764.6193959595
 10
2239958.934387057
 20
507771.8538979798
 10
2239963.960976763
 20
507779.0884
  0
LWPOLYLINE
  5
2010001
100
AcDbEntity
100
AcDbPolyline
  8
Contours-GWCdata.grd
 62
7
 43
0
 90
44
 70
128
 10
2239741.590021409
 20
507779.0884
 10
2239745.499970644
 20
507771.8538979798
 10
2239748.0369375
 20
507767.2872454621
 10
2239749.489699316
 20
507764.6193959595
 10
2239753.569099728
 20
507757.3848939394
 10
2239757.729433043
 20
507750.1503919191
 10
2239759.449625
 20
507747.2842636547
 10
2239762.005039977
 20
507742.915889899
 10
2239766.394205724
 20
507735.6813878787
 10
2239770.8623125
 20
507728.5432716528
 10
2239770.920885731
 20
507728.4468858586
 10
2239775.604277092
 20
507721.2123838383
 10
2239780.474535176
 20
507713.9778818181
 10
2239782.275
 20
507711.4786383387
 10
2239785.56198624
 20
507706.7433797979
 10
2239790.916420803
 20
507699.5088777777
 10
2239793.6876875
 20
507696.05423042
 10
2239796.602166383
 20
507692.2743757576
 10
2239802.712256363
 20
507685.0398737373
 10
2239805.100375
 20
507682.4968380097
 10
2239809.373266059
 20
507677.8053717171
 10
2239816.5130625
 20
507670.9133021365
 10
2239816.864117935
 20
507670.5708696969
 10
2239825.538046119
 20
507663.3363676767
 10
2239827.92575
 20
507661.6289531735
 10
2239836.454491442
 20
507656.1018656565
 10
2239839.3384375
 20
507654.4997993714
 10
2239850.751125
 20
507649.5523155755
 10
2239853.360981975
 20
507648.8673636363
 10
2239862.1638125
 20
507646.6773265691
 10
2239873.5765
 20
507645.6717451361
 10
2239884.9891875
 20
507646.3120920156
 10
2239896.401875
 20
507648.3418843903
 10
2239898.430321929
 20
507648.8673636363
 10
2239907.8145625
 20
507651.6440429916
 10
2239919.22725
 20
507655.8909090881
 10
2239919.74492103
 20
507656.1018656565
 10
2239930.6399375
 20
507661.1284539534
 10
2239935.177990733
 20
507663.3363676767
 10
2239942.052625
 20
507667.0850757677
 10
2239948.374426216
 20
507670.5708696969
 10
2239953.4653125
 20
507673.6763758953
 10
2239960.303586158
 20
507677.8053717171
 10
2239964.878
 20
507680.8228345617
  0
LWPOLYLINE
  5
2010002
100
AcDbEntity
100
AcDbPolyline
  8
Contours-GWCdata.grd
 62
7
 43
0
 90
2
 70
128
 10
2239670.568696757
 20
507779.0884
 10
2239676.087551478
 20
507771.8538979798
  0
LWPOLYLINE
  5
2010003
100
AcDbEntity
100
AcDbPolyline
  8
Contours-GWCdata.grd
 62
7
 43
0
 90
13
 70
128
 10
2239676.087551478
 20
507771.8538979798
 10
2239679.5608125
 20
507767.4126512815
 10
2239681.686755653
 20
507764.6193959595
 10
2239687.355496196
 20
507757.3848939394
 10
2239690.9735
 20
507752.8949533483
 10
2239693.123019572
 20
507750.1503919191
 10
2239698.977484958
 20
507742.915889899
 10
2239702.3861875
 20
507738.8396132544
 10
2239704.949829615
 20
507735.6813878787
 10
2239711.039580736
 20
507728.4468858586
 10
2239713.798875
 20
507725.2955513599
 10
2239717.265787751
 20
507721.2123838383
 10
2239723.66196517
 20
507713.9778818181
  0
LWPOLYLINE
  5
2010004
100
AcDbEntity
100
AcDbPolyline
  8
Contours-GWCdata.grd
 62
7
 43
0
 90
2
 70
128
 10
2239723.66196517
 20
507713.9778818181
 10
2239723.66196517
 20
507713.9778818181
  0
TEXT
  5
2010005
100
AcDbEntity
100
AcDbText
  8
Contours-GWCdata.grd
 62
7
 10
2239722.739150077
 20
507706.6677545451
 30
0
 40
11.84492895754775
  1
1030
 50
-45.92838240314799
 41
0.9344937535144283
 72
5
 11
2239748.392646553
 21
507680.1691463636
 31
0
100
AcDbText
  0
LWPOLYLINE
  5
2010006
100
AcDbEntity
100
AcDbPolyline
  8
Contours-GWCdata.grd
 62
7
 43
0
 90
2
 70
128
 10
2239755.728835765
 20
507680.8546215914
 10
2239758.958463816
 20
507677.8053717171
  0
LWPOLYLINE
  5
2010007
100
AcDbEntity
100
AcDbPolyline
  8
Contours-GWCdata.grd
 62
7
 43
0
 90
31
 70
128
 10
2239758.958463816
 20
507677.8053717171
 10
2239759.449625
 20
507677.371812449
 10
2239766.981341207
 20
507670.5708696969
 10
2239770.8623125
 20
507667.3223618877
 10
2239775.548850697
 20
507663.3363676767
 10
2239782.275
 20
507658.0797628374
 10
2239784.796160858
 20
507656.1018656565
 10
2239793.6876875
 20
507649.7428295299
 10
2239794.93326869
 20
507648.8673636363
 10
2239805.100375
 20
507642.382250714
 10
2239806.338385454
 20
507641.6328616161
 10
2239816.5130625
 20
507636.0274726577
 10
2239819.796857261
 20
507634.3983595959
 10
2239827.92575
 20
507630.676425214
 10
2239837.045062773
 20
507627.1638575757
 10
2239839.3384375
 20
507626.3283701608
 10
2239850.751125
 20
507623.006685373
 10
2239862.1638125
 20
507620.6624561089
 10
2239868.166294034
 20
507619.9293555555
 10
2239873.5765
 20
507619.2602519469
 10
2239884.9891875
 20
507618.74455653
 10
2239896.401875
 20
507619.0525479798
 10
2239905.915427102
 20
507619.9293555555
 10
2239907.8145625
 20
507620.1154858123
 10
2239919.22725
 20
507621.8879735874
 10
2239930.6399375
 20
507624.2777931761
 10
2239941.931074827
 20
507627.1638575757
 10
2239942.052625
 20
507627.1974759962
 10
2239953.4653125
 20
507630.6754866397
 10
2239964.500581995
 20
507634.3983595959
 10
2239964.878
 20
507634.5358681059
  0
LWPOLYLINE
  5
2010008
100
AcDbEntity
100
AcDbPolyline
  8
Contours-GWCdata.grd
 62
7
 43
0
 90
58
 70
128
 10
2239599.672
 20
507774.1643890063
 10
2239601.86841033
 20
507771.8538979798
 10
2239608.921049417
 20
507764.6193959595
 10
2239611.0846875
 20
507762.4579801369
 10
2239616.029094737
 20
507757.3848939394
 10
2239622.497375
 20
507750.9152547421
 10
2239623.241699579
 20
507750.1503919191
 10
2239630.495042457
 20
507742.915889899
 10
2239633.9100625
 20
507739.6068741494
 10
2239637.852670106
 20
507735.6813878787
 10
2239645.32275
 20
507728.4635633385
 10
2239645.33954474
 20
507728.4468858586
 10
2239652.8794926
 20
507721.2123838383
 10
2239656.7354375
 20
507717.6345575041
 10
2239660.571495821
 20
507713.9778818181
 10
2239668.148125
 20
507707.0101237345
 10
2239668.430501509
 20
507706.7433797979
 10
2239676.395964198
 20
507699.5088777777
 10
2239679.5608125
 20
507696.7476558325
 10
2239684.55966742
 20
507692.2743757576
 10
2239690.9735
 20
507686.7781451482
 10
2239692.952974082
 20
507685.0398737373
 10
2239701.584280762
 20
507677.8053717171
 10
2239702.3861875
 20
507677.1642705067
 10
2239710.463616032
 20
507670.5708696969
 10
2239713.798875
 20
507667.9861062686
 10
2239719.690292966
 20
507663.3363676767
 10
2239725.2115625
 20
507659.2161588364
 10
2239729.324339933
 20
507656.1018656565
 10
2239736.62425
 20
507650.8971915675
 10
2239739.444309697
 20
507648.8673636363
 10
2239748.0369375
 20
507643.0670178232
 10
2239750.156571583
 20
507641.6328616161
 10
2239759.449625
 20
507635.7552155023
 10
2239761.611373738
 20
507634.3983595959
 10
2239770.8623125
 20
507628.9805518557
 10
2239774.030460104
 20
507627.1638575757
 10
2239782.275
 20
507622.7505020922
 10
2239787.751937522
 20
507619.9293555555
 10
2239793.6876875
 20
507617.0642119434
 10
2239803.29415088
 20
507612.6948535353
 10
2239805.100375
 20
507611.9189502601
 10
2239816.5130625
 20
507607.3480904213
 10
2239821.759285465
 20
507605.4603515151
 10
2239827.92575
 20
507603.3222958993
 10
2239839.3384375
 20
507599.8537265751
 10
2239845.719600489
 20
507598.2258494949
 10
2239850.751125
 20
507596.9527990625
 10
2239862.1638125
 20
507594.6303530542
 10
2239873.5765
 20
507592.8960907374
 10
2239884.9891875
 20
507591.7507048557
 10
2239896.401875
 20
507591.1817258674
 10
2239907.8145625
 20
507591.1667933225
 10
2239919.22725
 20
507591.6749081338
 10
2239930.6399375
 20
507592.6672124138
 10
2239942.052625
 20
507594.0987357826
 10
2239953.4653125
 20
507595.9211631357
 10
2239964.878
 20
507598.0858587518
  0
LWPOLYLINE
  5
2010009
100
AcDbEntity
100
AcDbPolyline
  8
Contours-GWCdata.grd
 62
7
 43
0
 90
2
 70
128
 10
2239599.672
 20
507704.8585230021
 10
2239606.512062961
 20
507699.5088777777
  0
LWPOLYLINE
  5
201000A
100
AcDbEntity
100
AcDbPolyline
  8
Contours-GWCdata.grd
 62
7
 43
0
 90
12
 70
128
 10
2239606.512062961
 20
507699.5088777777
 10
2239611.0846875
 20
507696.0488612657
 10
2239615.956235749
 20
507692.2743757576
 10
2239622.497375
 20
507687.3783267463
 10
2239625.550901699
 20
507685.0398737373
 10
2239633.9100625
 20
507678.8656971235
 10
2239635.314659795
 20
507677.8053717171
 10
2239645.268724214
 20
507670.5708696969
 10
2239645.32275
 20
507670.5330486971
 10
2239655.410825417
 20
507663.3363676767
 10
2239656.7354375
 20
507662.4286702388
 10
2239665.815456936
 20
507656.1018656565
  0
LWPOLYLINE
  5
201000B
100
AcDbEntity
100
AcDbPolyline
  8
Contours-GWCdata.grd
 62
7
 43
0
 90
2
 70
128
 10
2239665.815456936
 20
507656.1018656565
 10
2239665.815456936
 20
507656.1018656565
  0
TEXT
  5
201000C
100
AcDbEntity
100
AcDbText
  8
Contours-GWCdata.grd
 62
7
 10
2239666.579317685
 20
507648.773423448
 30
0
 40
11.84492895754775
  1
1031
 50
-32.78295565108265
 41
0.984828790438298
 72
5
 11
2239697.586993829
 21
507628.8033924744
 31
0
100
AcDbText
  0
LWPOLYLINE
  5
201000D
100
AcDbEntity
100
AcDbPolyline
  8
Contours-GWCdata.grd
 62
7
 43
0
 90
2
 70
128
 10
2239704.575052117
 20
507631.1393269394
 10
2239711.207993607
 20
507627.1638575757
  0
LWPOLYLINE
  5
201000E
100
AcDbEntity
100
AcDbPolyline
  8
Contours-GWCdata.grd
 62
7
 43
0
 90
32
 70
128
 10
2239711.207993607
 20
507627.1638575757
 10
2239713.798875
 20
507625.6877684108
 10
2239723.965024367
 20
507619.9293555555
 10
2239725.2115625
 20
507619.2593355232
 10
2239736.62425
 20
507613.1938927286
 10
2239737.576281265
 20
507612.6948535353
 10
2239748.0369375
 20
507607.5108159234
 10
2239752.28436514
 20
507605.4603515151
 10
2239759.449625
 20
507602.1889617982
 10
2239768.448638878
 20
507598.2258494949
 10
2239770.8623125
 20
507597.2186805977
 10
2239782.275
 20
507592.6138031962
 10
2239786.474293815
 20
507590.9913474747
 10
2239793.6876875
 20
507588.3321559489
 10
2239805.100375
 20
507584.331757647
 10
2239806.820983827
 20
507583.7568454545
 10
2239816.5130625
 20
507580.6125833062
 10
2239827.92575
 20
507577.1289760112
 10
2239830.070334522
 20
507576.5223434343
 10
2239839.3384375
 20
507573.9110089197
 10
2239850.751125
 20
507570.9876697114
 10
2239858.364520861
 20
507569.2878414141
 10
2239862.1638125
 20
507568.4247483136
 10
2239873.5765
 20
507566.2821132653
 10
2239884.9891875
 20
507564.6155209985
 10
2239896.401875
 20
507563.4404236222
 10
2239907.8145625
 20
507562.7435535563
 10
2239919.22725
 20
507562.4934139927
 10
2239930.6399375
 20
507562.6494518931
 10
2239942.052625
 20
507563.1683176236
 10
2239953.4653125
 20
507564.0075577222
 10
2239964.878
 20
507565.1275660357
  0
LWPOLYLINE
  5
201000F
100
AcDbEntity
100
AcDbPolyline
  8
Contours-GWCdata.grd
 62
7
 43
0
 90
49
 70
128
 10
2239599.672
 20
507651.0579345138
 10
2239603.223399991
 20
507648.8673636363
 10
2239611.0846875
 20
507644.1857880049
 10
2239615.302173223
 20
507641.6328616161
 10
2239622.497375
 20
507637.4316939967
 10
2239627.620343739
 20
507634.3983595959
 10
2239633.9100625
 20
507630.8093487879
 10
2239640.228631456
 20
507627.1638575757
 10
2239645.32275
 20
507624.3340265313
 10
2239653.193648338
 20
507619.9293555555
 10
2239656.7354375
 20
507618.0226257748
 10
2239666.604133079
 20
507612.6948535353
 10
2239668.148125
 20
507611.8936281895
 10
2239679.5608125
 20
507605.977989108
 10
2239680.562930322
 20
507605.4603515151
 10
2239690.9735
 20
507600.3051807813
 10
2239695.229485433
 20
507598.2258494949
 10
2239702.3861875
 20
507594.8763599458
 10
2239710.874701338
 20
507590.9913474747
 10
2239713.798875
 20
507589.709973253
 10
2239725.2115625
 20
507584.8401546289
 10
2239727.828650074
 20
507583.7568454545
 10
2239736.62425
 20
507580.2792703846
 10
2239746.599865744
 20
507576.5223434343
 10
2239748.0369375
 20
507576.0052697643
 10
2239759.449625
 20
507572.0449970824
 10
2239767.836668854
 20
507569.2878414141
 10
2239770.8623125
 20
507568.3376584023
 10
2239782.275
 20
507564.8635558182
 10
2239791.817871421
 20
507562.0533393939
 10
2239793.6876875
 20
507561.5242116163
 10
2239805.100375
 20
507558.2606573375
 10
2239816.5130625
 20
507554.9467488538
 10
2239816.94473057
 20
507554.8188373737
 10
2239827.92575
 20
507551.5614464186
 10
2239839.3384375
 20
507548.110298146
 10
2239841.158490018
 20
507547.5843353535
 10
2239850.751125
 20
507544.7201970753
 10
2239862.1638125
 20
507541.6068580029
 10
2239867.621426115
 20
507540.3498333333
 10
2239873.5765
 20
507538.935355239
 10
2239884.9891875
 20
507536.8104933748
 10
2239896.401875
 20
507535.2452487875
 10
2239907.8145625
 20
507534.1760188389
 10
2239919.22725
 20
507533.5250006752
 10
2239930.6399375
 20
507533.2200139829
 10
2239942.052625
 20
507533.2009846739
 10
2239953.4653125
 20
507533.4201195304
 10
2239964.878
 20
507533.8399044439
  0
LWPOLYLINE
  5
2010010
100
AcDbEntity
100
AcDbPolyline
  8
Contours-GWCdata.grd
 62
7
 43
0
 90
2
 70
128
 10
2239599.672
 20
507605.5243818802
 10
2239599.801648097
 20
507605.4603515151
  0
LWPOLYLINE
  5
2010011
100
AcDbEntity
100
AcDbPolyline
  8
Contours-GWCdata.grd
 62
7
 43
0
 90
10
 70
128
 10
2239599.801648097
 20
507605.4603515151
 10
2239611.0846875
 20
507600.074052748
 10
2239614.922495282
 20
507598.2258494949
 10
2239622.497375
 20
507594.7000981909
 10
2239630.423893583
 20
507590.9913474747
 10
2239633.9100625
 20
507589.4147019507
 10
2239645.32275
 20
507584.2414064369
 10
2239646.389840256
 20
507583.7568454545
 10
2239656.7354375
 20
507579.2176908559
 10
2239662.937777927
 20
507576.5223434343
  0
LWPOLYLINE
  5
2010012
100
AcDbEntity
100
AcDbPolyline
  8
Contours-GWCdata.grd
 62
7
 43
0
 90
2
 70
128
 10
2239662.937777927
 20
507576.5223434343
 10
2239662.937777927
 20
507576.5223434343
  0
TEXT
  5
2010013
100
AcDbEntity
100
AcDbText
  8
Contours-GWCdata.grd
 62
7
 10
2239665.120770771
 20
507569.4850079519
 30
0
 40
11.84492895754775
  1
1032
 50
-21.4995670502134
 41
0.8901721566399844
 72
5
 11
2239699.436485634
 21
507555.9679879262
 31
0
100
AcDbText
  0
LWPOLYLINE
  5
2010014
100
AcDbEntity
100
AcDbPolyline
  8
Contours-GWCdata.grd
 62
7
 43
0
 90
2
 70
128
 10
2239705.832421506
 20
507559.6260684021
 10
2239713.798875
 20
507556.8175866632
  0
LWPOLYLINE
  5
2010015
100
AcDbEntity
100
AcDbPolyline
  8
Contours-GWCdata.grd
 62
7
 43
0
 90
31
 70
128
 10
2239713.798875
 20
507556.8175866632
 10
2239719.77556139
 20
507554.8188373737
 10
2239725.2115625
 20
507553.0626866483
 10
2239736.62425
 20
507549.5964722247
 10
2239743.761665602
 20
507547.5843353535
 10
2239748.0369375
 20
507546.4206930451
 10
2239759.449625
 20
507543.5340048704
 10
2239770.8623125
 20
507540.898172185
 10
2239773.327646386
 20
507540.3498333333
 10
2239782.275
 20
507538.4421697706
 10
2239793.6876875
 20
507536.0170538776
 10
2239805.100375
 20
507533.3599562909
 10
2239805.974713508
 20
507533.1153313131
 10
2239816.5130625
 20
507530.1854409405
 10
2239827.92575
 20
507526.228234907
 10
2239828.847012212
 20
507525.8808292929
 10
2239839.3384375
 20
507521.5842710619
 10
2239846.706547102
 20
507518.6463272727
 10
2239850.751125
 20
507516.8843482462
 10
2239862.1638125
 20
507512.8528418336
 10
2239867.655488751
 20
507511.4118252525
 10
2239873.5765
 20
507509.8450511926
 10
2239884.9891875
 20
507507.7684200166
 10
2239896.401875
 20
507506.3678230671
 10
2239907.8145625
 20
507505.4131298149
 10
2239919.22725
 20
507504.7566272238
 10
2239930.6399375
 20
507504.3073451091
 10
2239935.641797227
 20
507504.1773232323
 10
2239942.052625
 20
507504.0110290087
 10
2239953.4653125
 20
507503.8310811794
 10
2239964.878
 20
507503.7438243347
  0
LWPOLYLINE
  5
2010016
100
AcDbEntity
100
AcDbPolyline
  8
Contours-GWCdata.grd
 62
7
 43
0
 90
46
 70
128
 10
2239599.672
 20
507565.0733399649
 10
2239607.454225931
 20
507562.0533393939
 10
2239611.0846875
 20
507560.6888872905
 10
2239622.497375
 20
507556.3559711517
 10
2239626.521576931
 20
507554.8188373737
 10
2239633.9100625
 20
507552.0824137013
 10
2239645.32275
 20
507547.8645551734
 10
2239646.080833144
 20
507547.5843353535
 10
2239656.7354375
 20
507543.7593167743
 10
2239666.393819834
 20
507540.3498333333
 10
2239668.148125
 20
507539.7475204807
 10
2239679.5608125
 20
507535.8949538937
 10
2239688.102367588
 20
507533.1153313131
 10
2239690.9735
 20
507532.2051923488
 10
2239702.3861875
 20
507528.7342513399
 10
2239712.394611437
 20
507525.8808292929
 10
2239713.798875
 20
507525.4903532259
 10
2239725.2115625
 20
507522.5148565965
 10
2239736.62425
 20
507519.803693374
 10
2239742.03095406
 20
507518.6463272727
 10
2239748.0369375
 20
507517.3808043488
 10
2239759.449625
 20
507515.2653629145
 10
2239770.8623125
 20
507513.5084801387
 10
2239782.275
 20
507512.1465216657
 10
2239789.907360302
 20
507511.4118252525
 10
2239793.6876875
 20
507511.0552814755
 10
2239805.100375
 20
507509.6510868793
 10
2239816.5130625
 20
507506.106248285
 10
2239819.995280601
 20
507504.1773232323
 10
2239827.92575
 20
507498.0856955023
 10
2239829.528442605
 20
507496.9428212121
 10
2239837.779326063
 20
507489.7083191919
 10
2239839.3384375
 20
507488.1864605313
 10
2239850.200415503
 20
507482.4738171717
 10
2239850.751125
 20
507482.2281783426
 10
2239862.1638125
 20
507479.9683297531
 10
2239873.5765
 20
507479.0236068662
 10
2239884.9891875
 20
507478.4563240823
 10
2239896.401875
 20
507477.9862659756
 10
2239907.8145625
 20
507477.5221272692
 10
2239919.22725
 20
507477.0346474383
 10
2239930.6399375
 20
507476.5172554465
 10
2239942.052625
 20
507475.9719990387
 10
2239953.4653125
 20
507475.4039617876
 10
2239956.722504204
 20
507475.2393151515
 10
2239964.878
 20
507474.823379239
  0
LWPOLYLINE
  5
2010017
100
AcDbEntity
100
AcDbPolyline
  8
Contours-GWCdata.grd
 62
7
 43
0
 90
2
 70
128
 10
2239599.672
 20
507528.1183715264
 10
2239606.904559748
 20
507525.8808292929
  0
LWPOLYLINE
  5
2010018
100
AcDbEntity
100
AcDbPolyline
  8
Contours-GWCdata.grd
 62
7
 43
0
 90
9
 70
128
 10
2239606.904559748
 20
507525.8808292929
 10
2239611.0846875
 20
507524.6288342612
 10
2239622.497375
 20
507521.1431411753
 10
2239630.578008331
 20
507518.6463272727
 10
2239633.9100625
 20
507517.6475123826
 10
2239645.32275
 20
507514.1776815942
 10
2239654.410702029
 20
507511.4118252525
 10
2239656.7354375
 20
507510.7230603642
 10
2239668.148125
 20
507507.34669016
  0
LWPOLYLINE
  5
2010019
100
AcDbEntity
100
AcDbPolyline
  8
Contours-GWCdata.grd
 62
7
 43
0
 90
2
 70
128
 10
2239668.148125
 20
507507.34669016
 10
2239668.148125
 20
507507.34669016
  0
TEXT
  5
201001A
100
AcDbEntity
100
AcDbText
  8
Contours-GWCdata.grd
 62
7
 10
2239671.139182546
 20
507500.6129599007
 30
0
 40
11.84492895754775
  1
1033
 50
-14.78321416334404
 41
0.890172156639282
 72
5
 11
2239706.800271487
 21
507491.2020697984
 31
0
100
AcDbText
  0
LWPOLYLINE
  5
201001B
100
AcDbEntity
100
AcDbPolyline
  8
Contours-GWCdata.grd
 62
7
 43
0
 90
2
 70
128
 10
2239712.724486176
 20
507495.5830775321
 10
2239713.798875
 20
507495.3336560558
  0
LWPOLYLINE
  5
201001C
100
AcDbEntity
100
AcDbPolyline
  8
Contours-GWCdata.grd
 62
7
 43
0
 90
29
 70
128
 10
2239713.798875
 20
507495.3336560558
 10
2239725.2115625
 20
507492.8605419725
 10
2239736.62425
 20
507490.4997276627
 10
2239740.531658082
 20
507489.7083191919
 10
2239748.0369375
 20
507488.1996027795
 10
2239759.449625
 20
507485.8764125728
 10
2239770.8623125
 20
507483.5050273746
 10
2239775.87829821
 20
507482.4738171717
 10
2239782.275
 20
507481.012252935
 10
2239793.6876875
 20
507477.6910985086
 10
2239798.201261432
 20
507475.2393151515
 10
2239805.100375
 20
507471.0223491938
 10
2239807.993965593
 20
507468.0048131312
 10
2239815.914549345
 20
507460.7703111111
 10
2239816.5130625
 20
507460.3551816581
 10
2239823.956046572
 20
507453.5358090909
 10
2239827.92575
 20
507451.3431413046
 10
2239839.3384375
 20
507449.3489115309
 10
2239850.751125
 20
507450.7802683179
 10
2239862.1638125
 20
507451.9494606759
 10
2239873.5765
 20
507452.5753973233
 10
2239884.9891875
 20
507452.7378767664
 10
2239896.401875
 20
507452.5359073049
 10
2239907.8145625
 20
507452.0493321749
 10
2239919.22725
 20
507451.3392232688
 10
2239930.6399375
 20
507450.4523934995
 10
2239942.052625
 20
507449.4251425072
 10
2239953.4653125
 20
507448.2859146075
 10
2239964.878
 20
507447.0571665728
  0
LWPOLYLINE
  5
201001D
100
AcDbEntity
100
AcDbPolyline
  8
Contours-GWCdata.grd
 62
7
 43
0
 90
43
 70
128
 10
2239599.672
 20
507493.9779201367
 10
2239611.0846875
 20
507491.3207697038
 10
2239617.754464907
 20
507489.7083191919
 10
2239622.497375
 20
507488.6032603702
 10
2239633.9100625
 20
507485.831776396
 10
2239645.32275
 20
507482.9706044024
 10
2239647.233362894
 20
507482.4738171717
 10
2239656.7354375
 20
507480.0811320632
 10
2239668.148125
 20
507477.1451713136
 10
2239675.584124855
 20
507475.2393151515
 10
2239679.5608125
 20
507474.2457910805
 10
2239690.9735
 20
507471.5413524126
 10
2239702.3861875
 20
507469.1950494337
 10
2239709.391427485
 20
507468.0048131312
 10
2239713.798875
 20
507467.3069679842
 10
2239725.2115625
 20
507465.6634353968
 10
2239736.62425
 20
507463.8186017149
 10
2239748.0369375
 20
507461.4021426045
 10
2239750.328782044
 20
507460.7703111111
 10
2239759.449625
 20
507458.3219138347
 10
2239770.8623125
 20
507454.3263324805
 10
2239773.018438692
 20
507453.5358090909
 10
2239782.275
 20
507450.316473108
 10
2239793.6876875
 20
507446.8985127845
 10
2239795.258081351
 20
507446.3013070707
 10
2239805.100375
 20
507443.3628123819
 10
2239816.5130625
 20
507439.1899814586
 10
2239816.867641404
 20
507439.0668050505
 10
2239827.92575
 20
507435.8482968216
 10
2239839.3384375
 20
507433.9051148149
 10
2239850.751125
 20
507433.0598839548
 10
2239862.1638125
 20
507432.5770880456
 10
2239873.5765
 20
507432.0413437447
 10
2239876.878749704
 20
507431.8323030302
 10
2239884.9891875
 20
507431.3066567173
 10
2239896.401875
 20
507430.3191161925
 10
2239907.8145625
 20
507429.0778031786
 10
2239919.22725
 20
507427.6100934408
 10
2239930.6399375
 20
507425.9479663172
 10
2239939.163642847
 20
507424.5978010101
 10
2239942.052625
 20
507424.1251697221
 10
2239953.4653125
 20
507422.1701808904
 10
2239964.878
 20
507420.0953186412
  0
LWPOLYLINE
  5
201001E
100
AcDbEntity
100
AcDbPolyline
  8
Contours-GWCdata.grd
 62
7
 43
0
 90
2
 70
128
 10
2239599.672
 20
507462.2714717622
 10
2239609.409772816
 20
507460.7703111111
  0
LWPOLYLINE
  5
201001F
100
AcDbEntity
100
AcDbPolyline
  8
Contours-GWCdata.grd
 62
7
 43
0
 90
8
 70
128
 10
2239609.409772816
 20
507460.7703111111
 10
2239611.0846875
 20
507460.5237190424
 10
2239622.497375
 20
507458.6930170965
 10
2239633.9100625
 20
507456.7361049797
 10
2239645.32275
 20
507454.6257668111
 10
2239650.682408027
 20
507453.5358090909
 10
2239656.7354375
 20
507452.3720355837
 10
2239668.148125
 20
507449.96322422
  0
LWPOLYLINE
  5
2010020
100
AcDbEntity
100
AcDbPolyline
  8
Contours-GWCdata.grd
 62
7
 43
0
 90
2
 70
128
 10
2239668.148125
 20
507449.96322422
 10
2239668.148125
 20
507449.96322422
  0
TEXT
  5
2010021
100
AcDbEntity
100
AcDbText
  8
Contours-GWCdata.grd
 62
7
 10
2239671.875568095
 20
507443.6074617617
 30
0
 40
11.84492895754775
  1
1034
 50
-8.343337870120923
 41
0.8901721566396332
 72
5
 11
2239708.367169621
 21
507438.2557204498
 31
0
100
AcDbText
  0
LWPOLYLINE
  5
2010022
100
AcDbEntity
100
AcDbPolyline
  8
Contours-GWCdata.grd
 62
7
 43
0
 90
2
 70
128
 10
2239713.762626907
 20
507443.2735475802
 10
2239713.798875
 20
507443.2743507366
  0
LWPOLYLINE
  5
2010023
100
AcDbEntity
100
AcDbPolyline
  8
Contours-GWCdata.grd
 62
7
 43
0
 90
30
 70
128
 10
2239713.798875
 20
507443.2743507366
 10
2239725.2115625
 20
507443.292823537
 10
2239736.62425
 20
507442.4829542551
 10
2239748.0369375
 20
507440.617312259
 10
2239753.584820456
 20
507439.0668050505
 10
2239759.449625
 20
507437.6197436909
 10
2239770.8623125
 20
507433.4874655247
 10
2239776.966918323
 20
507431.8323030302
 10
2239782.275
 20
507430.72758002
 10
2239793.6876875
 20
507429.5635923988
 10
2239805.100375
 20
507427.367471416
 10
2239816.357988762
 20
507424.5978010101
 10
2239816.5130625
 20
507424.5618549647
 10
2239827.92575
 20
507421.8790093137
 10
2239839.3384375
 20
507419.5475967171
 10
2239850.751125
 20
507417.568437659
 10
2239852.122806247
 20
507417.3632989898
 10
2239862.1638125
 20
507415.7537068629
 10
2239873.5765
 20
507413.9188339608
 10
2239884.9891875
 20
507411.9490943174
 10
2239894.728108836
 20
507410.1287969697
 10
2239896.401875
 20
507409.7970783524
 10
2239907.8145625
 20
507407.4589504454
 10
2239919.22725
 20
507404.9302409902
 10
2239927.930076902
 20
507402.8942949494
 10
2239930.6399375
 20
507402.2267773051
 10
2239942.052625
 20
507399.3635139138
 10
2239953.4653125
 20
507396.3663551863
 10
2239956.138164863
 20
507395.6597929293
 10
2239964.878
 20
507393.2378700583
  0
LWPOLYLINE
  5
2010024
100
AcDbEntity
100
AcDbPolyline
  8
Contours-GWCdata.grd
 62
7
 43
0
 90
45
 70
128
 10
2239599.672
 20
507432.5145541329
 10
2239611.0846875
 20
507431.8734788709
 10
2239611.686552302
 20
507431.8323030302
 10
2239622.497375
 20
507431.1336889261
 10
2239633.9100625
 20
507430.2777094595
 10
2239645.32275
 20
507429.2909437639
 10
2239656.7354375
 20
507428.1593261688
 10
2239668.148125
 20
507426.8736471057
 10
2239679.5608125
 20
507425.4507706462
 10
2239686.308592761
 20
507424.5978010101
 10
2239690.9735
 20
507424.1032417603
 10
2239702.3861875
 20
507423.7759827357
 10
2239711.066289144
 20
507424.5978010101
 10
2239713.798875
 20
507424.8790312978
 10
2239725.2115625
 20
507425.7853184583
 10
2239736.62425
 20
507425.7967079358
 10
2239748.0369375
 20
507424.767435909
 10
2239748.932014668
 20
507424.5978010101
 10
2239759.449625
 20
507422.8742893066
 10
2239770.8623125
 20
507420.4488822034
 10
2239782.275
 20
507418.3653314637
 10
2239788.27551047
 20
507417.3632989898
 10
2239793.6876875
 20
507416.4488095438
 10
2239805.100375
 20
507414.109115249
 10
2239816.5130625
 20
507411.3077567822
 10
2239821.124991849
 20
507410.1287969697
 10
2239827.92575
 20
507408.3337441311
 10
2239839.3384375
 20
507405.3494643212
 10
2239848.917953133
 20
507402.8942949494
 10
2239850.751125
 20
507402.3870616464
 10
2239862.1638125
 20
507399.3765404671
 10
2239873.5765
 20
507396.2801753078
 10
2239875.88855165
 20
507395.6597929293
 10
2239884.9891875
 20
507393.0179527785
 10
2239896.401875
 20
507389.5962885353
 10
2239900.279011428
 20
507388.425290909
 10
2239907.8145625
 20
507385.9814282841
 10
2239919.22725
 20
507382.20226602
 10
2239922.282559019
 20
507381.1907888888
 10
2239930.6399375
 20
507378.2409997136
 10
2239942.052625
 20
507374.148257756
 10
2239942.596066514
 20
507373.9562868687
 10
2239953.4653125
 20
507369.8870264507
 10
2239961.866402854
 20
507366.7217848484
 10
2239964.878
 20
507365.5213692106
  0
LWPOLYLINE
  5
2010025
100
AcDbEntity
100
AcDbPolyline
  8
Contours-GWCdata.grd
 62
7
 43
0
 90
2
 70
128
 10
2239599.672
 20
507403.7753022232
 10
2239611.0846875
 20
507404.4410092852
  0
LWPOLYLINE
  5
2010026
100
AcDbEntity
100
AcDbPolyline
  8
Contours-GWCdata.grd
 62
7
 43
0
 90
6
 70
128
 10
2239611.0846875
 20
507404.4410092852
 10
2239622.497375
 20
507405.0274358587
 10
2239633.9100625
 20
507405.5320270129
 10
2239645.32275
 20
507405.9569491144
 10
2239656.7354375
 20
507406.3143666806
 10
2239668.148125
 20
507406.637244298
  0
LWPOLYLINE
  5
2010027
100
AcDbEntity
100
AcDbPolyline
  8
Contours-GWCdata.grd
 62
7
 43
0
 90
2
 70
128
 10
2239668.148125
 20
507406.637244298
 10
2239668.148125
 20
507406.637244298
  0
TEXT
  5
2010028
100
AcDbEntity
100
AcDbText
  8
Contours-GWCdata.grd
 62
7
 10
2239673.146120504
 20
507401.2234111467
 30
0
 40
11.84492895754775
  1
1035
 50
3.979339868995623
 41
0.8901721566395454
 72
5
 11
2239709.939151631
 21
507403.7828988777
 31
0
100
AcDbText
  0
LWPOLYLINE
  5
2010029
100
AcDbEntity
100
AcDbPolyline
  8
Contours-GWCdata.grd
 62
7
 43
0
 90
2
 70
128
 10
2239714.139413909
 20
507409.8366039617
 10
2239716.792566521
 20
507410.1287969697
  0
LWPOLYLINE
  5
201002A
100
AcDbEntity
100
AcDbPolyline
  8
Contours-GWCdata.grd
 62
7
 43
0
 90
34
 70
128
 10
2239716.792566521
 20
507410.1287969697
 10
2239725.2115625
 20
507411.0353569195
 10
2239736.62425
 20
507411.7119646013
 10
2239748.0369375
 20
507411.5489502058
 10
2239759.449625
 20
507410.5208403246
 10
2239762.054341424
 20
507410.1287969697
 10
2239770.8623125
 20
507408.898890694
 10
2239782.275
 20
507406.9244736963
 10
2239793.6876875
 20
507404.5784279961
 10
2239800.565688813
 20
507402.8942949494
 10
2239805.100375
 20
507401.7377418144
 10
2239816.5130625
 20
507398.4359664599
 10
2239825.354700857
 20
507395.6597929293
 10
2239827.92575
 20
507394.7925785417
 10
2239839.3384375
 20
507390.8970598899
 10
2239846.504547941
 20
507388.425290909
 10
2239850.751125
 20
507386.818605576
 10
2239862.1638125
 20
507382.5528440023
 10
2239865.863280005
 20
507381.1907888888
 10
2239873.5765
 20
507378.0749348705
 10
2239883.788638562
 20
507373.9562868687
 10
2239884.9891875
 20
507373.4264859165
 10
2239896.401875
 20
507368.5413756829
 10
2239900.703787469
 20
507366.7217848484
 10
2239907.8145625
 20
507363.4652894124
 10
2239916.62725732
 20
507359.4872828283
 10
2239919.22725
 20
507358.222356136
 10
2239930.6399375
 20
507352.8038204072
 10
2239931.831188765
 20
507352.252780808
 10
2239942.052625
 20
507347.2021204835
 10
2239946.567405751
 20
507345.0182787878
 10
2239953.4653125
 20
507341.4670965693
 10
2239960.797583488
 20
507337.7837767676
 10
2239964.878
 20
507335.6095584406
  0
LWPOLYLINE
  5
201002B
100
AcDbEntity
100
AcDbPolyline
  8
Contours-GWCdata.grd
 62
7
 43
0
 90
50
 70
128
 10
2239599.672
 20
507374.6262239831
 10
2239611.0846875
 20
507376.7583992797
 10
2239622.497375
 20
507378.8454133903
 10
2239633.9100625
 20
507380.8915888598
 10
2239635.520402128
 20
507381.1907888888
 10
2239645.32275
 20
507382.8690856101
 10
2239656.7354375
 20
507384.8163511805
 10
2239668.148125
 20
507386.7673918823
 10
2239677.482854193
 20
507388.425290909
 10
2239679.5608125
 20
507388.7589096157
 10
2239690.9735
 20
507390.7963019603
 10
2239702.3861875
 20
507392.9569069167
 10
2239713.798875
 20
507395.1789739173
 10
2239716.342564939
 20
507395.6597929293
 10
2239725.2115625
 20
507397.2028297547
 10
2239736.62425
 20
507398.7197580445
 10
2239748.0369375
 20
507399.4200193639
 10
2239759.449625
 20
507399.1283948427
 10
2239770.8623125
 20
507397.8629694416
 10
2239782.275
 20
507395.7828951104
 10
2239782.799633483
 20
507395.6597929293
 10
2239793.6876875
 20
507392.989455249
 10
2239805.100375
 20
507389.5170860253
 10
2239808.309385843
 20
507388.425290909
 10
2239816.5130625
 20
507385.3894962848
 10
2239826.957650831
 20
507381.1907888888
 10
2239827.92575
 20
507380.7593236285
 10
2239839.3384375
 20
507375.6424298189
 10
2239843.109786291
 20
507373.9562868687
 10
2239850.751125
 20
507370.1551907884
 10
2239857.799497564
 20
507366.7217848484
 10
2239862.1638125
 20
507364.3610283139
 10
2239871.490493563
 20
507359.4872828283
 10
2239873.5765
 20
507358.2835450196
 10
2239884.472908285
 20
507352.252780808
 10
2239884.9891875
 20
507351.9394398545
 10
2239896.401875
 20
507345.3296641033
 10
2239896.96209142
 20
507345.0182787878
 10
2239907.8145625
 20
507338.4849908618
 10
2239909.027973582
 20
507337.7837767676
 10
2239919.22725
 20
507331.4380261987
 10
2239920.716143587
 20
507330.5492747474
 10
2239930.6399375
 20
507324.2058728487
 10
2239932.092891977
 20
507323.3147727272
 10
2239942.052625
 20
507316.8050155701
 10
2239943.207809083
 20
507316.080270707
 10
2239953.4653125
 20
507309.2509676885
 10
2239954.098942267
 20
507308.8457686868
 10
2239964.800424745
 20
507301.6112666666
 10
2239964.878
 20
507301.5559548436
  0
LWPOLYLINE
  5
201002C
100
AcDbEntity
100
AcDbPolyline
  8
Contours-GWCdata.grd
 62
7
 43
0
 90
2
 70
128
 10
2239599.672
 20
507343.0844704997
 10
2239605.241743187
 20
507345.0182787878
  0
LWPOLYLINE
  5
201002D
100
AcDbEntity
100
AcDbPolyline
  8
Contours-GWCdata.grd
 62
7
 43
0
 90
9
 70
128
 10
2239605.241743187
 20
507345.0182787878
 10
2239611.0846875
 20
507346.9064199472
 10
2239622.497375
 20
507350.6868248104
 10
2239627.06122066
 20
507352.252780808
 10
2239633.9100625
 20
507354.4188561118
 10
2239645.32275
 20
507358.1272558565
 10
2239649.315282378
 20
507359.4872828283
 10
2239656.7354375
 20
507361.7893233276
 10
2239668.148125
 20
507365.452817815
  0
LWPOLYLINE
  5
201002E
100
AcDbEntity
100
AcDbPolyline
  8
Contours-GWCdata.grd
 62
7
 43
0
 90
2
 70
128
 10
2239668.148125
 20
507365.452817815
 10
2239668.148125
 20
507365.452817815
  0
TEXT
  5
201002F
100
AcDbEntity
100
AcDbText
  8
Contours-GWCdata.grd
 62
7
 10
2239674.278071149
 20
507361.3646264474
 30
0
 40
11.84492895754775
  1
1036
 50
17.56629352514794
 41
0.8901721566396332
 72
5
 11
2239709.440154673
 21
507372.4959336142
 31
0
100
AcDbText
  0
LWPOLYLINE
  5
2010030
100
AcDbEntity
100
AcDbPolyline
  8
Contours-GWCdata.grd
 62
7
 43
0
 90
2
 70
128
 10
2239712.100729405
 20
507379.3669517734
 10
2239713.798875
 20
507379.8946528499
  0
LWPOLYLINE
  5
2010031
100
AcDbEntity
100
AcDbPolyline
  8
Contours-GWCdata.grd
 62
7
 43
0
 90
41
 70
128
 10
2239713.798875
 20
507379.8946528499
 10
2239717.977287263
 20
507381.1907888888
 10
2239725.2115625
 20
507383.1666276938
 10
2239736.62425
 20
507385.8973849442
 10
2239748.0369375
 20
507387.7158841742
 10
2239759.449625
 20
507388.1509133764
 10
2239770.8623125
 20
507387.0431920397
 10
2239782.275
 20
507384.6583248924
 10
2239793.6876875
 20
507381.2771361106
 10
2239793.93328915
 20
507381.1907888888
 10
2239805.100375
 20
507376.869802553
 10
2239811.704263325
 20
507373.9562868687
 10
2239816.5130625
 20
507371.5595557946
 10
2239825.784462121
 20
507366.7217848484
 10
2239827.92575
 20
507365.447417182
 10
2239838.075189788
 20
507359.4872828283
 10
2239839.3384375
 20
507358.6454466783
 10
2239849.371391989
 20
507352.252780808
 10
2239850.751125
 20
507351.2661225093
 10
2239860.014366909
 20
507345.0182787878
 10
2239862.1638125
 20
507343.4102840037
 10
2239870.173134004
 20
507337.7837767676
 10
2239873.5765
 20
507335.1602402518
 10
2239879.946640513
 20
507330.5492747474
 10
2239884.9891875
 20
507326.580955517
 10
2239889.400867109
 20
507323.3147727272
 10
2239896.401875
 20
507317.7237134035
 10
2239898.583601284
 20
507316.080270707
 10
2239907.547572078
 20
507308.8457686868
 10
2239907.8145625
 20
507308.6161011134
 10
2239916.432686635
 20
507301.6112666666
 10
2239919.22725
 20
507299.2002447037
 10
2239925.126208624
 20
507294.3767646464
 10
2239930.6399375
 20
507289.6119148354
 10
2239933.647005499
 20
507287.1422626262
 10
2239942.01263801
 20
507279.907760606
 10
2239942.052625
 20
507279.871444423
 10
2239950.371885346
 20
507272.6732585858
 10
2239953.4653125
 20
507269.8717812778
 10
2239958.592011362
 20
507265.4387565656
 10
2239964.878
 20
507259.7635743227
  0
LWPOLYLINE
  5
2010032
100
AcDbEntity
100
AcDbPolyline
  8
Contours-GWCdata.grd
 62
7
 43
0
 90
67
 70
128
 10
2239599.672
 20
507306.0582151352
 10
2239604.937646401
 20
507308.8457686868
 10
2239611.0846875
 20
507311.8931578896
 10
2239619.145664121
 20
507316.080270707
 10
2239622.497375
 20
507317.7030663035
 10
2239633.532281269
 20
507323.3147727272
 10
2239633.9100625
 20
507323.4929027648
 10
2239645.32275
 20
507329.1905979547
 10
2239647.885084728
 20
507330.5492747474
 10
2239656.7354375
 20
507334.8596907162
 10
2239662.371764556
 20
507337.7837767676
 10
2239668.148125
 20
507340.5159696881
 10
2239677.057252907
 20
507345.0182787878
 10
2239679.5608125
 20
507346.1623354954
 10
2239690.9735
 20
507351.7552833989
 10
2239691.911320451
 20
507352.252780808
 10
2239702.3861875
 20
507357.2023589001
 10
2239706.920688482
 20
507359.4872828283
 10
2239713.798875
 20
507362.5356779888
 10
2239722.900803893
 20
507366.7217848484
 10
2239725.2115625
 20
507367.6408120924
 10
2239736.62425
 20
507372.1475274799
 10
2239741.691177957
 20
507373.9562868687
 10
2239748.0369375
 20
507375.7700568137
 10
2239759.449625
 20
507377.4182488599
 10
2239770.8623125
 20
507376.0709365756
 10
2239779.345135816
 20
507373.9562868687
 10
2239782.275
 20
507373.1604324119
 10
2239793.6876875
 20
507368.8770558881
 10
2239798.324340787
 20
507366.7217848484
 10
2239805.100375
 20
507363.0773796436
 10
2239811.199949782
 20
507359.4872828283
 10
2239816.5130625
 20
507355.801070994
 10
2239821.68283701
 20
507352.252780808
 10
2239827.92575
 20
507347.2853240904
 10
2239830.936381894
 20
507345.0182787878
 10
2239839.3384375
 20
507337.8522580453
 10
2239839.424530924
 20
507337.7837767676
 10
2239847.59979082
 20
507330.5492747474
 10
2239850.751125
 20
507327.4816349212
 10
2239855.366963948
 20
507323.3147727272
 10
2239862.1638125
 20
507316.6545157775
 10
2239862.793666979
 20
507316.080270707
 10
2239870.128113746
 20
507308.8457686868
 10
2239873.5765
 20
507305.2180731182
 10
2239877.242296561
 20
507301.6112666666
 10
2239884.170446882
 20
507294.3767646464
 10
2239884.9891875
 20
507293.4701694719
 10
2239891.061636326
 20
507287.1422626262
 10
2239896.401875
 20
507281.3138791198
 10
2239897.766004025
 20
507279.907760606
 10
2239904.42825675
 20
507272.6732585858
 10
2239907.8145625
 20
507268.8403528396
 10
2239910.980445908
 20
507265.4387565656
 10
2239917.440221686
 20
507258.2042545454
 10
2239919.22725
 20
507256.1203200208
 10
2239923.859939104
 20
507250.9697525252
 10
2239930.157068764
 20
507243.735250505
 10
2239930.6399375
 20
507243.15781239
 10
2239936.457895606
 20
507236.5007484848
 10
2239942.052625
 20
507229.9214418451
 10
2239942.63404765
 20
507229.2662464646
 10
2239948.811963174
 20
507222.0317444444
 10
2239953.4653125
 20
507216.4419599701
 10
2239954.890350155
 20
507214.7972424242
 10
2239960.951452476
 20
507207.562740404
 10
2239964.878
 20
507202.7583458398
  0
LWPOLYLINE
  5
2010033
100
AcDbEntity
100
AcDbPolyline
  8
Contours-GWCdata.grd
 62
7
 43
0
 90
2
 70
128
 10
2239599.672
 20
507257.1603885992
 10
2239601.008454914
 20
507258.2042545454
  0
LWPOLYLINE
  5
2010034
100
AcDbEntity
100
AcDbPolyline
  8
Contours-GWCdata.grd
 62
7
 43
0
 90
12
 70
128
 10
2239601.008454914
 20
507258.2042545454
 10
2239610.701305188
 20
507265.4387565656
 10
2239611.0846875
 20
507265.7110194761
 10
2239620.396859478
 20
507272.6732585858
 10
2239622.497375
 20
507274.1660060105
 10
2239630.146263702
 20
507279.907760606
 10
2239633.9100625
 20
507282.5863668996
 10
2239639.947608404
 20
507287.1422626262
 10
2239645.32275
 20
507290.9765328349
 10
2239649.799217016
 20
507294.3767646464
 10
2239656.7354375
 20
507299.3409558676
 10
2239659.70063019
 20
507301.6112666666
  0
LWPOLYLINE
  5
2010035
100
AcDbEntity
100
AcDbPolyline
  8
Contours-GWCdata.grd
 62
7
 43
0
 90
2
 70
128
 10
2239659.70063019
 20
507301.6112666666
 10
2239659.70063019
 20
507301.6112666666
  0
TEXT
  5
2010036
100
AcDbEntity
100
AcDbText
  8
Contours-GWCdata.grd
 62
7
 10
2239666.802625381
 20
507299.6488159638
 30
0
 40
11.84492895754775
  1
1037
 50
35.81971256315462
 41
0.8901721566396332
 72
5
 11
2239696.708814877
 21
507321.2334852183
 31
0
100
AcDbText
  0
LWPOLYLINE
  5
2010037
100
AcDbEntity
100
AcDbPolyline
  8
Contours-GWCdata.grd
 62
7
 43
0
 90
2
 70
128
 10
2239697.08336706
 20
507328.5921032347
 10
2239699.792467343
 20
507330.5492747474
  0
LWPOLYLINE
  5
2010038
100
AcDbEntity
100
AcDbPolyline
  8
Contours-GWCdata.grd
 62
7
 43
0
 90
37
 70
128
 10
2239699.792467343
 20
507330.5492747474
 10
2239702.3861875
 20
507332.2583416113
 10
2239710.103348488
 20
507337.7837767676
 10
2239713.798875
 20
507340.1685073698
 10
2239720.76049513
 20
507345.0182787878
 10
2239725.2115625
 20
507347.7672478669
 10
2239732.086813282
 20
507352.252780808
 10
2239736.62425
 20
507354.8209251296
 10
2239744.891518469
 20
507359.4872828283
 10
2239748.0369375
 20
507360.9921277221
 10
2239759.449625
 20
507365.2610383225
 10
2239770.8623125
 20
507363.739119316
 10
2239782.275
 20
507360.6486017721
 10
2239784.898289973
 20
507359.4872828283
 10
2239793.6876875
 20
507354.9267620185
 10
2239797.773434105
 20
507352.252780808
 10
2239805.100375
 20
507346.1916719627
 10
2239806.529142829
 20
507345.0182787878
 10
2239813.861550117
 20
507337.7837767676
 10
2239816.5130625
 20
507334.7407953583
 10
2239820.474020321
 20
507330.5492747474
 10
2239826.598042828
 20
507323.3147727272
 10
2239827.92575
 20
507321.5866116845
 10
2239832.480792992
 20
507316.080270707
 10
2239838.079394454
 20
507308.8457686868
 10
2239839.3384375
 20
507307.0963835295
 10
2239843.549850884
 20
507301.6112666666
 10
2239848.842968631
 20
507294.3767646464
 10
2239850.751125
 20
507291.6295526589
 10
2239854.049190643
 20
507287.1422626262
 10
2239859.144659021
 20
507279.907760606
 10
2239862.1638125
 20
507275.4745538004
 10
2239864.168399924
 20
507272.6732585858
 10
2239869.122406073
 20
507265.4387565656
 10
2239873.5765
 20
507258.8163813343
 10
2239874.006678712
 20
507258.2042545454
 10
2239878.847388199
 20
507250.9697525252
  0
LWPOLYLINE
  5
2010039
100
AcDbEntity
100
AcDbPolyline
  8
Contours-GWCdata.grd
 62
7
 43
0
 90
2
 70
128
 10
2239878.847388199
 20
507250.9697525252
 10
2239878.847388199
 20
507250.9697525252
  0
TEXT
  5
201003A
100
AcDbEntity
100
AcDbText
  8
Contours-GWCdata.grd
 62
7
 10
2239876.517440607
 20
507243.9796958254
 30
0
 40
11.84492895754775
  1
1037
 50
-57.16796440589356
 41
0.8901721566399844
 72
5
 11
2239896.51402563
 21
507212.9891375154
 31
0
100
AcDbText
  0
LWPOLYLINE
  5
201003B
100
AcDbEntity
100
AcDbPolyline
  8
Contours-GWCdata.grd
 62
7
 43
0
 90
2
 70
128
 10
2239903.843119479
 20
507212.2315546377
 10
2239906.76587232
 20
507207.562740404
  0
LWPOLYLINE
  5
201003C
100
AcDbEntity
100
AcDbPolyline
  8
Contours-GWCdata.grd
 62
7
 43
0
 90
20
 70
128
 10
2239906.76587232
 20
507207.562740404
 10
2239907.8145625
 20
507205.8350096578
 10
2239911.256648898
 20
507200.3282383838
 10
2239915.696955888
 20
507193.0937363636
 10
2239919.22725
 20
507187.254681788
 10
2239920.095294274
 20
507185.8592343434
 10
2239924.454505077
 20
507178.6247323232
 10
2239928.769192084
 20
507171.390230303
 10
2239930.6399375
 20
507168.1824226093
 10
2239933.049947421
 20
507164.1557282828
 10
2239937.291668965
 20
507156.9212262626
 10
2239941.497281171
 20
507149.6867242424
 10
2239942.052625
 20
507148.7046944174
 10
2239945.67368892
 20
507142.4522222222
 10
2239949.815320998
 20
507135.217720202
 10
2239953.4653125
 20
507128.7811108363
 10
2239953.928420149
 20
507127.9832181818
 10
2239958.014296171
 20
507120.7487161616
 10
2239962.071702817
 20
507113.5142141414
 10
2239964.878
 20
507108.4492125997
  0
LWPOLYLINE
  5
201003D
100
AcDbEntity
100
AcDbPolyline
  8
Contours-GWCdata.grd
 62
7
 43
0
 90
91
 70
128
 10
2239599.672
 20
507176.4996881477
 10
2239601.46774806
 20
507178.6247323232
 10
2239607.733589313
 20
507185.8592343434
 10
2239611.0846875
 20
507189.6516303381
 10
2239614.040161536
 20
507193.0937363636
 10
2239620.379897236
 20
507200.3282383838
 10
2239622.497375
 20
507202.679191861
 10
2239626.764957408
 20
507207.562740404
 10
2239633.181442039
 20
507214.7972424242
 10
2239633.9100625
 20
507215.5897343021
 10
2239639.645786134
 20
507222.0317444444
 10
2239645.32275
 20
507228.3319209084
 10
2239646.139334967
 20
507229.2662464646
 10
2239652.672803865
 20
507236.5007484848
 10
2239656.7354375
 20
507240.9216624354
 10
2239659.236776162
 20
507243.735250505
 10
2239665.81845067
 20
507250.9697525252
 10
2239668.148125
 20
507253.4565900945
 10
2239672.434452583
 20
507258.2042545454
 10
2239679.040517603
 20
507265.4387565656
 10
2239679.5608125
 20
507265.9835038106
 10
2239685.686433258
 20
507272.6732585858
 10
2239690.9735
 20
507278.3949362937
 10
2239692.317251646
 20
507279.907760606
 10
2239698.965801134
 20
507287.1422626262
 10
2239702.3861875
 20
507290.768428547
 10
2239705.640742328
 20
507294.3767646464
 10
2239712.318307236
 20
507301.6112666666
 10
2239713.798875
 20
507303.1274112304
 10
2239719.120860926
 20
507308.8457686868
 10
2239725.2115625
 20
507315.2435188409
 10
2239725.983160914
 20
507316.080270707
 10
2239733.124327644
 20
507323.3147727272
 10
2239736.62425
 20
507326.6437035456
 10
2239740.670746772
 20
507330.5492747474
 10
2239748.0369375
 20
507337.0784484223
 10
2239748.876202334
 20
507337.7837767676
 10
2239759.449625
 20
507344.9941043728
 10
2239759.496654249
 20
507345.0182787878
 10
2239770.8623125
 20
507348.4241921099
 10
2239782.275
 20
507346.4556877136
 10
2239784.363556543
 20
507345.0182787878
 10
2239790.590198366
 20
507337.7837767676
 10
2239793.6876875
 20
507333.0341686323
 10
2239795.393740638
 20
507330.5492747474
 10
2239799.543013901
 20
507323.3147727272
 10
2239803.684586115
 20
507316.080270707
 10
2239805.100375
 20
507313.4645530974
 10
2239807.54116825
 20
507308.8457686868
 10
2239811.150946613
 20
507301.6112666666
 10
2239814.707401285
 20
507294.3767646464
 10
2239816.5130625
 20
507290.5468649382
 10
2239818.112385077
 20
507287.1422626262
 10
2239821.349706674
 20
507279.907760606
 10
2239824.599779355
 20
507272.6732585858
 10
2239827.897544656
 20
507265.4387565656
 10
2239827.92575
 20
507265.3739975491
 10
2239831.003974199
 20
507258.2042545454
 10
2239834.142124801
 20
507250.9697525252
 10
2239837.325652165
 20
507243.735250505
 10
2239839.3384375
 20
507239.1417076471
 10
2239840.482256615
 20
507236.5007484848
 10
2239843.542509991
 20
507229.2662464646
 10
2239846.623893912
 20
507222.0317444444
 10
2239849.722474505
 20
507214.7972424242
 10
2239850.751125
 20
507212.337151476
 10
2239852.725300173
 20
507207.562740404
 10
2239855.670683721
 20
507200.3282383838
 10
2239858.604673296
 20
507193.0937363636
 10
2239861.522458047
 20
507185.8592343434
 10
2239862.1638125
 20
507184.2132338203
 10
2239864.327218712
 20
507178.6247323232
 10
2239867.078689932
 20
507171.390230303
 10
2239869.8020394
 20
507164.1557282828
 10
2239872.497762363
 20
507156.9212262626
 10
2239873.5765
 20
507153.9398118632
 10
2239875.111098996
 20
507149.6867242424
 10
2239877.658081892
 20
507142.4522222222
 10
2239880.178350867
 20
507135.217720202
 10
2239882.675016468
 20
507127.9832181818
 10
2239884.9891875
 20
507121.2086329184
 10
2239885.146052633
 20
507120.7487161616
 10
2239887.522141004
 20
507113.5142141414
 10
2239889.878582963
 20
507106.2797121212
 10
2239892.218492073
 20
507099.0452101009
 10
2239894.544745158
 20
507091.8107080808
 10
2239896.401875
 20
507085.9745665154
 10
2239896.845555118
 20
507084.5762060605
 10
2239899.076734623
 20
507077.3417040404
 10
2239901.297081132
 20
507070.1072020201
 10
2239903.50878233
 20
507062.8727
  0
LWPOLYLINE
  5
201003E
100
AcDbEntity
100
AcDbPolyline
  8
Contours-GWCdata.grd
 62
7
 43
0
 90
2
 70
128
 10
2239681.363255476
 20
507062.8727
 10
2239683.133266297
 20
507070.1072020201
  0
LWPOLYLINE
  5
201003F
100
AcDbEntity
100
AcDbPolyline
  8
Contours-GWCdata.grd
 62
7
 43
0
 90
10
 70
128
 10
2239683.133266297
 20
507070.1072020201
 10
2239684.897079424
 20
507077.3417040404
 10
2239686.661611721
 20
507084.5762060605
 10
2239688.434242426
 20
507091.8107080808
 10
2239690.223004633
 20
507099.0452101009
 10
2239690.9735
 20
507101.9186986359
 10
2239692.262920446
 20
507106.2797121212
 10
2239694.465363984
 20
507113.5142141414
 10
2239696.675863366
 20
507120.7487161616
 10
2239698.911481679
 20
507127.9832181818
  0
LWPOLYLINE
  5
2010040
100
AcDbEntity
100
AcDbPolyline
  8
Contours-GWCdata.grd
 62
7
 43
0
 90
2
 70
128
 10
2239698.911481679
 20
507127.9832181818
 10
2239698.911481679
 20
507127.9832181818
  0
TEXT
  5
2010041
100
AcDbEntity
100
AcDbText
  8
Contours-GWCdata.grd
 62
7
 10
2239705.958348314
 20
507130.1352449223
 30
0
 40
11.84492895754775
  1
1038
 50
68.24848766227034
 41
0.8901721566399844
 72
5
 11
2239719.626132799
 21
507164.3911901616
 31
0
100
AcDbText
  0
LWPOLYLINE
  5
2010042
100
AcDbEntity
100
AcDbPolyline
  8
Contours-GWCdata.grd
 62
7
 43
0
 90
2
 70
128
 10
2239715.996212286
 20
507170.803149731
 10
2239716.30922735
 20
507171.390230303
  0
LWPOLYLINE
  5
2010043
100
AcDbEntity
100
AcDbPolyline
  8
Contours-GWCdata.grd
 62
7
 43
0
 90
34
 70
128
 10
2239716.30922735
 20
507171.390230303
 10
2239720.355621949
 20
507178.6247323232
 10
2239724.464263252
 20
507185.8592343434
 10
2239725.2115625
 20
507187.1171767059
 10
2239729.994901397
 20
507193.0937363636
 10
2239735.653246001
 20
507200.3282383838
 10
2239736.62425
 20
507201.5884548922
 10
2239745.013682992
 20
507207.562740404
 10
2239748.0369375
 20
507209.9220987285
 10
2239759.449625
 20
507209.1716645226
 10
2239760.888339463
 20
507207.562740404
 10
2239767.377194479
 20
507200.3282383838
 10
2239770.8623125
 20
507196.4863956323
 10
2239772.474121661
 20
507193.0937363636
 10
2239775.950759639
 20
507185.8592343434
 10
2239779.292485338
 20
507178.6247323232
 10
2239782.137754764
 20
507171.390230303
 10
2239782.275
 20
507170.8827707379
 10
2239783.641631451
 20
507164.1557282828
 10
2239784.361088881
 20
507156.9212262626
 10
2239784.456885997
 20
507149.6867242424
 10
2239784.163695389
 20
507142.4522222222
 10
2239783.634441217
 20
507135.217720202
 10
2239782.95380784
 20
507127.9832181818
 10
2239782.275
 20
507121.6769706459
 10
2239782.136700513
 20
507120.7487161616
 10
2239781.01532872
 20
507113.5142141414
 10
2239779.846647027
 20
507106.2797121212
 10
2239778.646432919
 20
507099.0452101009
 10
2239777.424736487
 20
507091.8107080808
 10
2239776.188224111
 20
507084.5762060605
 10
2239774.941468509
 20
507077.3417040404
 10
2239773.687694207
 20
507070.1072020201
 10
2239772.42922726
 20
507062.8727
  0
ENDSEC
  0
SECTION
  2
OBJECTS
  0
DICTIONARY
  5
C
330
0
100
AcDbDictionary
  3
ACAD_GROUP
350
D
  3
ACAD_MLINESTYLE
350
17
  3
ACAD_PLOTSETTINGS
350
19
  3
ACAD_LAYOUT
350
1A
  3
ACDBVARIABLEDICTIONARY
350
2C
  3
ACDBHEADERROUNDTRIPXREC
350
30
  0
DICTIONARY
  5
52
330
1F
100
AcDbDictionary
280
     1
  3
ACAD_LAYOUTSELFREF
360
53
  0
DICTIONARY
  5
50
330
1B
100
AcDbDictionary
280
     1
  3
ACAD_LAYOUTSELFREF
360
51
  0
DICTIONARY
  5
D
102
{ACAD_REACTORS
330
C
102
}
330
C
100
AcDbDictionary
  0
DICTIONARY
  5
17
102
{ACAD_REACTORS
330
C
102
}
330
C
100
AcDbDictionary
  3
STANDARD
350
18
  0
DICTIONARY
  5
19
102
{ACAD_REACTORS
330
C
102
}
330
C
100
AcDbDictionary
  0
DICTIONARY
  5
1A
102
{ACAD_REACTORS
330
C
102
}
330
C
100
AcDbDictionary
  0
DICTIONARY
  5
2C
102
{ACAD_REACTORS
330
C
102
}
330
C
100
AcDbDictionary
  3
SORTENTS
350
2D
  0
DICTIONARY
  5
30
102
{ACAD_REACTORS
330
C
102
}
330
C
100
AcDbDictionary
  3
TSTACKALIGN
350
31
  3
TSTACKSIZE
350
32
  3
HYPERLINKBASE
350
33
  3
STYLESHEET
350
34
  3
LAYOUTDICT
350
35
  3
PLOTSETDICT
350
36
  3
PLOTSTYLNAMDICT
350
37
  3
LWETCUNION
350
38
  3
INSUNITS
350
39
  3
CEPSNTYPE
350
3A
  3
FINGERPRINTGUID
350
3B
  3
VERSIONGUID
350
3C
  3
PSVPSCALE
350
3D
  3
PUCSORTHOREF
350
3E
  3
PUCSORTHOVIEW
350
3F
  3
PUCSBASE
350
40
  3
PUCSORGTOP
350
41
  3
PUCSORGBOTTOM
350
42
  3
PUCSORGLEFT
350
43
  3
PUCSORGRIGHT
350
44
  3
PUCSORGFRONT
350
45
  3
PUCSORGBACK
350
46
  3
UCSORTHOREF
350
47
  3
UCSORTHOVIEW
350
48
  3
UCSBASE
350
49
  3
UCSORGTOP
350
4A
  3
UCSORGBOTTOM
350
4B
  3
UCSORGLEFT
350
4C
  3
UCSORGRIGHT
350
4D
  3
UCSORGFRONT
350
4E
  3
UCSORGBACK
350
4F
  0
XRECORD
  5
53
102
{ACAD_REACTORS
330
52
102
}
330
52
100
AcDbXrecord
340
1F
  0
XRECORD
  5
51
102
{ACAD_REACTORS
330
50
102
}
330
50
100
AcDbXrecord
340
1B
  0
MLINESTYLE
  5
18
102
{ACAD_REACTORS
330
17
102
}
330
17
100
AcDbMlineStyle
  2
STANDARD
 70
     0
  3

 62
   256
 51
90.0
 52
90.0
 71
     2
 49
0.5
 62
   256
  6
BYLAYER
 49
-0.5
 62
   256
  6
BYLAYER
  0
DICTIONARYVAR
  5
2D
102
{ACAD_REACTORS
330
2C
102
}
330
2C
100
DictionaryVariables
280
     0
  1
127
  0
XRECORD
  5
31
102
{ACAD_REACTORS
330
30
102
}
330
30
100
AcDbXrecord
 90
        1
  0
XRECORD
  5
32
102
{ACAD_REACTORS
330
30
102
}
330
30
100
AcDbXrecord
 90
       70
  0
XRECORD
  5
33
102
{ACAD_REACTORS
330
30
102
}
330
30
100
AcDbXrecord
  1

  0
XRECORD
  5
34
102
{ACAD_REACTORS
330
30
102
}
330
30
100
AcDbXrecord
  1

  0
XRECORD
  5
35
102
{ACAD_REACTORS
330
30
102
}
330
30
100
AcDbXrecord
340
1A
  0
XRECORD
  5
36
102
{ACAD_REACTORS
330
30
102
}
330
30
100
AcDbXrecord
340
19
  0
XRECORD
  5
37
102
{ACAD_REACTORS
330
30
102
}
330
30
100
AcDbXrecord
340
E
  0
XRECORD
  5
38
102
{ACAD_REACTORS
330
30
102
}
330
30
100
AcDbXrecord
 90
    10781
  0
XRECORD
  5
39
102
{ACAD_REACTORS
330
30
102
}
330
30
100
AcDbXrecord
 90
        1
  0
XRECORD
  5
3A
102
{ACAD_REACTORS
330
30
102
}
330
30
100
AcDbXrecord
 90
        0
  0
XRECORD
  5
3B
102
{ACAD_REACTORS
330
30
102
}
330
30
100
AcDbXrecord
  1
{05DB923C-A77A-4D98-BEAE-5B8B8A44788A}
  0
XRECORD
  5
3C
102
{ACAD_REACTORS
330
30
102
}
330
30
100
AcDbXrecord
  1
{D64795F3-22EB-40D3-A2F7-433F47AAFA2C}
  0
XRECORD
  5
3D
102
{ACAD_REACTORS
330
30
102
}
330
30
100
AcDbXrecord
 40
0.0
  0
XRECORD
  5
3E
102
{ACAD_REACTORS
330
30
102
}
330
30
100
AcDbXrecord
340
0
  0
XRECORD
  5
3F
102
{ACAD_REACTORS
330
30
102
}
330
30
100
AcDbXrecord
 70
     0
  0
XRECORD
  5
40
102
{ACAD_REACTORS
330
30
102
}
330
30
100
AcDbXrecord
340
0
  0
XRECORD
  5
41
102
{ACAD_REACTORS
330
30
102
}
330
30
100
AcDbXrecord
 10
0.0
 20
0.0
 30
0.0
  0
XRECORD
  5
42
102
{ACAD_REACTORS
330
30
102
}
330
30
100
AcDbXrecord
 10
0.0
 20
0.0
 30
0.0
  0
XRECORD
  5
43
102
{ACAD_REACTORS
330
30
102
}
330
30
100
AcDbXrecord
 10
0.0
 20
0.0
 30
0.0
  0
XRECORD
  5
44
102
{ACAD_REACTORS
330
30
102
}
330
30
100
AcDbXrecord
 10
0.0
 20
0.0
 30
0.0
  0
XRECORD
  5
45
102
{ACAD_REACTORS
330
30
102
}
330
30
100
AcDbXrecord
 10
0.0
 20
0.0
 30
0.0
  0
XRECORD
  5
46
102
{ACAD_REACTORS
330
30
102
}
330
30
100
AcDbXrecord
 10
0.0
 20
0.0
 30
0.0
  0
XRECORD
  5
47
102
{ACAD_REACTORS
330
30
102
}
330
30
100
AcDbXrecord
340
0
  0
XRECORD
  5
48
102
{ACAD_REACTORS
330
30
102
}
330
30
100
AcDbXrecord
 70
     0
  0
XRECORD
  5
49
102
{ACAD_REACTORS
330
30
102
}
330
30
100
AcDbXrecord
340
0
  0
XRECORD
  5
4A
102
{ACAD_REACTORS
330
30
102
}
330
30
100
AcDbXrecord
 10
0.0
 20
0.0
 30
0.0
  0
XRECORD
  5
4B
102
{ACAD_REACTORS
330
30
102
}
330
30
100
AcDbXrecord
 10
0.0
 20
0.0
 30
0.0
  0
XRECORD
  5
4C
102
{ACAD_REACTORS
330
30
102
}
330
30
100
AcDbXrecord
 10
0.0
 20
0.0
 30
0.0
  0
XRECORD
  5
4D
102
{ACAD_REACTORS
330
30
102
}
330
30
100
AcDbXrecord
 10
0.0
 20
0.0
 30
0.0
  0
XRECORD
  5
4E
102
{ACAD_REACTORS
330
30
102
}
330
30
100
AcDbXrecord
 10
0.0
 20
0.0
 30
0.0
  0
XRECORD
  5
4F
102
{ACAD_REACTORS
330
30
102
}
330
30
100
AcDbXrecord
 10
0.0
 20
0.0
 30
0.0
  0
ENDSEC
  0
EOF
