  0
SECTION
  2
HEADER
  9
$ACADVER
  1
AC1018
  9
$ACADMAINTVER
 70
    39
  9
$DWGCODEPAGE
  3
ANSI_1256
  9
$INSBASE
 10
0.0
 20
0.0
 30
0.0
  9
$EXTMIN
 10
153.882611249912
 20
438.0242605516628
 30
0.0
  9
$EXTMAX
 10
3215.614380680957
 20
5674.514998000049
 30
0.0
  9
$LIMMIN
 10
0.0
 20
0.0
  9
$LIMMAX
 10
12.0
 20
9.0
  9
$ORTHOMODE
 70
     0
  9
$REGENMODE
 70
     1
  9
$FILLMODE
 70
     1
  9
$QTEXTMODE
 70
     0
  9
$MIRRTEXT
 70
     0
  9
$LTSCALE
 40
1.0
  9
$ATTMODE
 70
     1
  9
$TEXTSIZE
 40
0.2
  9
$TRACEWID
 40
0.05
  9
$TEXTSTYLE
  7
Standard
  9
$CLAYER
  8
0
  9
$CELTYPE
  6
Continuous
  9
$CECOLOR
 62
   256
  9
$CELTSCALE
 40
1.0
  9
$DISPSILH
 70
     0
  9
$DIMSCALE
 40
40.0
  9
$DIMASZ
 40
0.18
  9
$DIMEXO
 40
0.0625
  9
$DIMDLI
 40
0.38
  9
$DIMRND
 40
0.0
  9
$DIMDLE
 40
0.0
  9
$DIMEXE
 40
0.18
  9
$DIMTP
 40
0.0
  9
$DIMTM
 40
0.0
  9
$DIMTXT
 40
0.18
  9
$DIMCEN
 40
0.09
  9
$DIMTSZ
 40
0.0
  9
$DIMTOL
 70
     0
  9
$DIMLIM
 70
     0
  9
$DIMTIH
 70
     1
  9
$DIMTOH
 70
     1
  9
$DIMSE1
 70
     0
  9
$DIMSE2
 70
     0
  9
$DIMTAD
 70
     0
  9
$DIMZIN
 70
     0
  9
$DIMBLK
  1

  9
$DIMASO
 70
     1
  9
$DIMSHO
 70
     1
  9
$DIMPOST
  1

  9
$DIMAPOST
  1

  9
$DIMALT
 70
     0
  9
$DIMALTD
 70
     2
  9
$DIMALTF
 40
25.4
  9
$DIMLFAC
 40
1.0
  9
$DIMTOFL
 70
     0
  9
$DIMTVP
 40
0.0
  9
$DIMTIX
 70
     0
  9
$DIMSOXD
 70
     0
  9
$DIMSAH
 70
     0
  9
$DIMBLK1
  1

  9
$DIMBLK2
  1

  9
$DIMSTYLE
  2
Standard
  9
$DIMCLRD
 70
     0
  9
$DIMCLRE
 70
     0
  9
$DIMCLRT
 70
     0
  9
$DIMTFAC
 40
1.0
  9
$DIMGAP
 40
0.09
  9
$DIMJUST
 70
     0
  9
$DIMSD1
 70
     0
  9
$DIMSD2
 70
     0
  9
$DIMTOLJ
 70
     1
  9
$DIMTZIN
 70
     0
  9
$DIMALTZ
 70
     0
  9
$DIMALTTZ
 70
     0
  9
$DIMUPT
 70
     0
  9
$DIMDEC
 70
     4
  9
$DIMTDEC
 70
     4
  9
$DIMALTU
 70
     2
  9
$DIMALTTD
 70
     2
  9
$DIMTXSTY
  7
Standard
  9
$DIMAUNIT
 70
     0
  9
$DIMADEC
 70
     0
  9
$DIMALTRND
 40
0.0
  9
$DIMAZIN
 70
     0
  9
$DIMDSEP
 70
    46
  9
$DIMATFIT
 70
     3
  9
$DIMFRAC
 70
     0
  9
$DIMLDRBLK
  1

  9
$DIMLUNIT
 70
     2
  9
$DIMLWD
 70
    -2
  9
$DIMLWE
 70
    -2
  9
$DIMTMOVE
 70
     0
  9
$LUNITS
 70
     2
  9
$LUPREC
 70
     4
  9
$SKETCHINC
 40
0.1
  9
$FILLETRAD
 40
0.0
  9
$AUNITS
 70
     0
  9
$AUPREC
 70
     0
  9
$MENU
  1
.
  9
$ELEVATION
 40
0.0
  9
$PELEVATION
 40
0.0
  9
$THICKNESS
 40
0.0
  9
$LIMCHECK
 70
     0
  9
$CHAMFERA
 40
0.0
  9
$CHAMFERB
 40
0.0
  9
$CHAMFERC
 40
0.0
  9
$CHAMFERD
 40
0.0
  9
$SKPOLY
 70
     0
  9
$TDCREATE
 40
2456960.357174652
  9
$TDUCREATE
 40
2456960.211341320
  9
$TDUPDATE
 40
2457098.586378171
  9
$TDUUPDATE
 40
2457098.440544838
  9
$TDINDWG
 40
0.0738782060
  9
$TDUSRTIMER
 40
0.0738657292
  9
$USRTIMER
 70
     1
  9
$ANGBASE
 50
0.0
  9
$ANGDIR
 70
     0
  9
$PDMODE
 70
     0
  9
$PDSIZE
 40
0.0
  9
$PLINEWID
 40
0.0
  9
$SPLFRAME
 70
     0
  9
$SPLINETYPE
 70
     6
  9
$SPLINESEGS
 70
     8
  9
$HANDSEED
  5
1B32
  9
$SURFTAB1
 70
     6
  9
$SURFTAB2
 70
     6
  9
$SURFTYPE
 70
     6
  9
$SURFU
 70
     6
  9
$SURFV
 70
     6
  9
$UCSBASE
  2

  9
$UCSNAME
  2

  9
$UCSORG
 10
0.0
 20
0.0
 30
0.0
  9
$UCSXDIR
 10
1.0
 20
0.0
 30
0.0
  9
$UCSYDIR
 10
0.0
 20
1.0
 30
0.0
  9
$UCSORTHOREF
  2

  9
$UCSORTHOVIEW
 70
     0
  9
$UCSORGTOP
 10
0.0
 20
0.0
 30
0.0
  9
$UCSORGBOTTOM
 10
0.0
 20
0.0
 30
0.0
  9
$UCSORGLEFT
 10
0.0
 20
0.0
 30
0.0
  9
$UCSORGRIGHT
 10
0.0
 20
0.0
 30
0.0
  9
$UCSORGFRONT
 10
0.0
 20
0.0
 30
0.0
  9
$UCSORGBACK
 10
0.0
 20
0.0
 30
0.0
  9
$PUCSBASE
  2

  9
$PUCSNAME
  2

  9
$PUCSORG
 10
0.0
 20
0.0
 30
0.0
  9
$PUCSXDIR
 10
1.0
 20
0.0
 30
0.0
  9
$PUCSYDIR
 10
0.0
 20
1.0
 30
0.0
  9
$PUCSORTHOREF
  2

  9
$PUCSORTHOVIEW
 70
     0
  9
$PUCSORGTOP
 10
0.0
 20
0.0
 30
0.0
  9
$PUCSORGBOTTOM
 10
0.0
 20
0.0
 30
0.0
  9
$PUCSORGLEFT
 10
0.0
 20
0.0
 30
0.0
  9
$PUCSORGRIGHT
 10
0.0
 20
0.0
 30
0.0
  9
$PUCSORGFRONT
 10
0.0
 20
0.0
 30
0.0
  9
$PUCSORGBACK
 10
0.0
 20
0.0
 30
0.0
  9
$USERI1
 70
     0
  9
$USERI2
 70
     0
  9
$USERI3
 70
     0
  9
$USERI4
 70
     0
  9
$USERI5
 70
     0
  9
$USERR1
 40
0.0
  9
$USERR2
 40
0.0
  9
$USERR3
 40
0.0
  9
$USERR4
 40
0.0
  9
$USERR5
 40
0.0
  9
$WORLDVIEW
 70
     1
  9
$SHADEDGE
 70
     3
  9
$SHADEDIF
 70
    70
  9
$TILEMODE
 70
     1
  9
$MAXACTVP
 70
    64
  9
$PINSBASE
 10
0.0
 20
0.0
 30
0.0
  9
$PLIMCHECK
 70
     0
  9
$PEXTMIN
 10
1.000000000000000E+20
 20
1.000000000000000E+20
 30
1.000000000000000E+20
  9
$PEXTMAX
 10
-1.000000000000000E+20
 20
-1.000000000000000E+20
 30
-1.000000000000000E+20
  9
$PLIMMIN
 10
0.0
 20
0.0
  9
$PLIMMAX
 10
12.0
 20
9.0
  9
$UNITMODE
 70
     0
  9
$VISRETAIN
 70
     1
  9
$PLINEGEN
 70
     0
  9
$PSLTSCALE
 70
     1
  9
$TREEDEPTH
 70
  3020
  9
$CMLSTYLE
  2
Standard
  9
$CMLJUST
 70
     0
  9
$CMLSCALE
 40
1.0
  9
$PROXYGRAPHICS
 70
     1
  9
$MEASUREMENT
 70
     0
  9
$CELWEIGHT
370
    -1
  9
$ENDCAPS
280
     0
  9
$JOINSTYLE
280
     0
  9
$LWDISPLAY
290
     0
  9
$INSUNITS
 70
     2
  9
$HYPERLINKBASE
  1

  9
$STYLESHEET
  1

  9
$XEDIT
290
     1
  9
$CEPSNTYPE
380
     0
  9
$PSTYLEMODE
290
     1
  9
$FINGERPRINTGUID
  2
{555B0C63-0956-4EF5-8BC6-E2C95446AC74}
  9
$VERSIONGUID
  2
{29403A5A-DA6A-428C-AD10-2C9DE980F811}
  9
$EXTNAMES
290
     1
  9
$PSVPSCALE
 40
0.0
  9
$OLESTARTUP
290
     0
  9
$SORTENTS
280
   127
  9
$INDEXCTL
280
     0
  9
$HIDETEXT
280
     0
  9
$XCLIPFRAME
290
     0
  9
$HALOGAP
280
     0
  9
$OBSCOLOR
 70
   257
  9
$OBSLTYPE
280
     0
  9
$INTERSECTIONDISPLAY
280
     0
  9
$INTERSECTIONCOLOR
 70
   257
  9
$DIMASSOC
280
     1
  9
$PROJECTNAME
  1

  0
ENDSEC
  0
SECTION
  2
CLASSES
  0
CLASS
  1
ACDBDICTIONARYWDFLT
  2
AcDbDictionaryWithDefault
  3
ObjectDBX Classes
 90
        0
 91
        1
280
     0
281
     0
  0
CLASS
  1
TABLESTYLE
  2
AcDbTableStyle
  3
ObjectDBX Classes
 90
     2047
 91
        2
280
     0
281
     0
  0
CLASS
  1
AECC_TREE_NODE
  2
AeccDbTreeNode
  3
AeccvBase10|Product Desc: Autodesk Civil 3D |Company: Autodesk,Inc. |WEB Address: www.autodesk.com
 90
     1023
 91
        3
280
     0
281
     0
  0
CLASS
  1
AECC_CLASS_NODE
  2
AeccDbClassNode
  3
AeccLand10|Product Desc: Autodesk Civil 3D |Company: Autodesk,Inc. |WEB Address: www.autodesk.com
 90
     1023
 91
       35
280
     0
281
     0
  0
CLASS
  1
AECC_ROOT_SETTINGS_NODE
  2
AeccDbRootSettingsNode
  3
AeccvBase10|Product Desc: Autodesk Civil 3D |Company: Autodesk,Inc. |WEB Address: www.autodesk.com
 90
     1023
 91
        1
280
     0
281
     0
  0
CLASS
  1
AEC_VARS_DWG_SETUP
  2
AecDbVarsDwgSetup
  3
AecBase40|Product Desc: Autodesk Architectural Desktop 2005 |Company: Autodesk,Inc. |WEB Address: www.autodesk.com
 90
      129
 91
        1
280
     0
281
     0
  0
CLASS
  1
DMMAPMANAGER
  2
AcMapDMMapManager
  3
AcMapDisplayManagement
 90
     1024
 91
        1
280
     0
281
     0
  0
CLASS
  1
DMSTYLELIBRARY
  2
AcMapDMStyleLibrary
  3
AcMapDisplayManagement
 90
     1024
 91
        1
280
     0
281
     0
  0
CLASS
  1
DMMAP
  2
AcMapDMMap
  3
AcMapDisplayManagement
 90
     1024
 91
        1
280
     0
281
     0
  0
CLASS
  1
DMBASEELEMENT
  2
AcMapDMBaseElement
  3
AcMapDisplayManagement
 90
     1024
 91
        1
280
     0
281
     0
  0
CLASS
  1
DMDEFAULTSTYLE
  2
AcMapDMDefaultStyle
  3
AcMapDisplayManagement
 90
     1024
 91
        1
280
     0
281
     0
  0
CLASS
  1
DMSTYLEREFERENCE
  2
AcMapDMStyleReference
  3
AcMapDisplayManagement
 90
     1024
 91
        1
280
     0
281
     0
  0
CLASS
  1
DMSTYLECATEGORY
  2
AcMapDMStyleCategory
  3
AcMapDisplayManagement
 90
     1024
 91
        1
280
     0
281
     0
  0
CLASS
  1
AECC_SETTINGS_NODE
  2
AeccDbSettingsNode
  3
AeccvBase10|Product Desc: Autodesk Civil 3D |Company: Autodesk,Inc. |WEB Address: www.autodesk.com
 90
     1023
 91
      362
280
     0
281
     0
  0
CLASS
  1
AECC_PROFILE_VIEW_STYLE
  2
AeccDbGraphStyleProfile
  3
AeccLand10|Product Desc: Autodesk Civil 3D |Company: Autodesk,Inc. |WEB Address: www.autodesk.com
 90
      129
 91
        2
280
     0
281
     0
  0
CLASS
  1
AECC_PROFILE_VIEW_BAND_STYLE_SET
  2
AeccDbGraphProfileBandStyleSet
  3
AeccLand10|Product Desc: Autodesk Civil 3D |Company: Autodesk,Inc. |WEB Address: www.autodesk.com
 90
      129
 91
        2
280
     0
281
     0
  0
CLASS
  1
AECC_PROFILE_VIEW_DATA_BAND_STYLE
  2
AeccDbGraphStyleProfileDataBands
  3
AeccLand10|Product Desc: Autodesk Civil 3D |Company: Autodesk,Inc. |WEB Address: www.autodesk.com
 90
      129
 91
        2
280
     0
281
     0
  0
CLASS
  1
AECC_LABEL_NODE
  2
AeccDbLabelNode
  3
AeccLand10|Product Desc: Autodesk Civil 3D |Company: Autodesk,Inc. |WEB Address: www.autodesk.com
 90
     1023
 91
        1
280
     0
281
     0
  0
CLASS
  1
AECC_LABEL_COLLECTOR_STYLE
  2
AeccDbLabelStyleCollector
  3
AeccLand10|Product Desc: Autodesk Civil 3D |Company: Autodesk,Inc. |WEB Address: www.autodesk.com
 90
     1023
 91
      123
280
     0
281
     0
  0
CLASS
  1
AECC_LABEL_TEXT_STYLE
  2
AeccDbLabelStyleText
  3
AeccLand10|Product Desc: Autodesk Civil 3D |Company: Autodesk,Inc. |WEB Address: www.autodesk.com
 90
     1023
 91
       89
280
     0
281
     0
  0
CLASS
  1
AECC_PROFILE_VIEW_HORIZONTAL_GEOMETRY_BAND_STYLE
  2
AeccDbGraphStyleHorGeometryBands
  3
AeccLand10|Product Desc: Autodesk Civil 3D |Company: Autodesk,Inc. |WEB Address: www.autodesk.com
 90
      129
 91
        2
280
     0
281
     0
  0
CLASS
  1
AECC_PROFILE_VIEW_VERTICAL_GEOMETRY_BAND_STYLE
  2
AeccDbGraphStyleVertGeometryBands
  3
AeccLand10|Product Desc: Autodesk Civil 3D |Company: Autodesk,Inc. |WEB Address: www.autodesk.com
 90
      129
 91
        2
280
     0
281
     0
  0
CLASS
  1
AECC_LABEL_RADIAL_LINE_STYLE
  2
AeccDbLabelStyleRadialLine
  3
AeccLand10|Product Desc: Autodesk Civil 3D |Company: Autodesk,Inc. |WEB Address: www.autodesk.com
 90
     1023
 91
       10
280
     0
281
     0
  0
CLASS
  1
AECC_POINT_STYLE
  2
AeccDbPointStyle
  3
AeccLand10|Product Desc: Autodesk Civil 3D |Company: Autodesk,Inc. |WEB Address: www.autodesk.com
 90
      895
 91
        2
280
     0
281
     0
  0
CLASS
  1
AECC_PROFILE_LABEL_SET
  2
AeccDbVAlignStnLabelsDlgTemplate
  3
AeccLand10|Product Desc: Autodesk Civil 3D |Company: Autodesk,Inc. |WEB Address: www.autodesk.com
 90
     1023
 91
        2
280
     0
281
     0
  0
CLASS
  1
AECC_SECTION_VIEW_STYLE
  2
AeccDbGraphStyleCrossSection
  3
AeccLand10|Product Desc: Autodesk Civil 3D |Company: Autodesk,Inc. |WEB Address: www.autodesk.com
 90
      129
 91
        2
280
     0
281
     0
  0
CLASS
  1
AECC_SECTION_VIEW_BAND_STYLE_SET
  2
AeccDbGraphSectionBandStyleSet
  3
AeccLand10|Product Desc: Autodesk Civil 3D |Company: Autodesk,Inc. |WEB Address: www.autodesk.com
 90
      129
 91
        2
280
     0
281
     0
  0
CLASS
  1
AECC_SECTION_VIEW_DATA_BAND_STYLE
  2
AeccDbGraphStyleSectionDataBands
  3
AeccLand10|Product Desc: Autodesk Civil 3D |Company: Autodesk,Inc. |WEB Address: www.autodesk.com
 90
      129
 91
        2
280
     0
281
     0
  0
CLASS
  1
AECC_SECTION_LABEL_SET
  2
AeccDbSectionLabelsDlgTemplate
  3
AeccLand10|Product Desc: Autodesk Civil 3D |Company: Autodesk,Inc. |WEB Address: www.autodesk.com
 90
     1023
 91
        2
280
     0
281
     0
  0
CLASS
  1
AECC_ALIGNMENT_STYLE
  2
AeccDbAlignmentStyle
  3
AeccLand10|Product Desc: Autodesk Civil 3D |Company: Autodesk,Inc. |WEB Address: www.autodesk.com
 90
     1023
 91
        2
280
     0
281
     0
  0
CLASS
  1
AECC_LABEL_VECTOR_ARROW_STYLE
  2
AeccDbLabelStyleVectorArrow
  3
AeccLand10|Product Desc: Autodesk Civil 3D |Company: Autodesk,Inc. |WEB Address: www.autodesk.com
 90
     1023
 91
        3
280
     0
281
     0
  0
CLASS
  1
AECC_ALIGNMENT_LABEL_SET
  2
AeccDbAlignStnLabelsDlgTemplate
  3
AeccLand10|Product Desc: Autodesk Civil 3D |Company: Autodesk,Inc. |WEB Address: www.autodesk.com
 90
     1023
 91
        2
280
     0
281
     0
  0
CLASS
  1
AECC_SURFACE_STYLE
  2
AeccDbSurfaceStyle
  3
AeccLand10|Product Desc: Autodesk Civil 3D |Company: Autodesk,Inc. |WEB Address: www.autodesk.com
 90
      129
 91
        2
280
     0
281
     0
  0
CLASS
  1
AECC_LEGEND_TABLE_STYLE
  2
AeccDbLegendScheduleTableStyle
  3
AeccLand10|Product Desc: Autodesk Civil 3D |Company: Autodesk,Inc. |WEB Address: www.autodesk.com
 90
     1023
 91
       14
280
     0
281
     0
  0
CLASS
  1
AECC_SECTION_STYLE
  2
AeccDbSectionStyle
  3
AeccLand10|Product Desc: Autodesk Civil 3D |Company: Autodesk,Inc. |WEB Address: www.autodesk.com
 90
     1023
 91
        2
280
     0
281
     0
  0
CLASS
  1
AECC_GRADING_STYLE
  2
AeccDbGradingStyle
  3
AeccLand10|Product Desc: Autodesk Civil 3D |Company: Autodesk,Inc. |WEB Address: www.autodesk.com
 90
     1023
 91
        2
280
     0
281
     0
  0
CLASS
  1
AECC_GRADING_CRITERIA
  2
AeccDbGradingCriteria
  3
AeccLand10|Product Desc: Autodesk Civil 3D |Company: Autodesk,Inc. |WEB Address: www.autodesk.com
 90
     1023
 91
        2
280
     0
281
     0
  0
CLASS
  1
AECC_PARCEL_STYLE
  2
AeccDbParcelStyle
  3
AeccLand10|Product Desc: Autodesk Civil 3D |Company: Autodesk,Inc. |WEB Address: www.autodesk.com
 90
      129
 91
        2
280
     0
281
     0
  0
CLASS
  1
AECC_SAMPLE_LINE_GROUP_STYLE
  2
AeccDbSampleLineGroupStyle
  3
AeccLand10|Product Desc: Autodesk Civil 3D |Company: Autodesk,Inc. |WEB Address: www.autodesk.com
 90
      129
 91
        2
280
     0
281
     0
  0
CLASS
  1
AECC_SHEET_STYLE
  2
AeccDbSheetStyle
  3
AeccLand10|Product Desc: Autodesk Civil 3D |Company: Autodesk,Inc. |WEB Address: www.autodesk.com
 90
      129
 91
        2
280
     0
281
     0
  0
CLASS
  1
AECC_SAMPLE_LINE_STYLE
  2
AeccDbSampleLineStyle
  3
AeccLand10|Product Desc: Autodesk Civil 3D |Company: Autodesk,Inc. |WEB Address: www.autodesk.com
 90
     1023
 91
        2
280
     0
281
     0
  0
CLASS
  1
AECC_PROFILE_STYLE
  2
AeccDbVAlignmentStyle
  3
AeccLand10|Product Desc: Autodesk Civil 3D |Company: Autodesk,Inc. |WEB Address: www.autodesk.com
 90
     1023
 91
        2
280
     0
281
     0
  0
CLASS
  1
AECC_STATION_FORMAT_STYLE
  2
AeccDbStationFormatStyle
  3
AeccLand10|Product Desc: Autodesk Civil 3D |Company: Autodesk,Inc. |WEB Address: www.autodesk.com
 90
     1023
 91
        1
280
     0
281
     0
  0
CLASS
  1
AECC_TABLE_STYLE
  2
AeccDbScheduleTableStyle
  3
AeccLand10|Product Desc: Autodesk Civil 3D |Company: Autodesk,Inc. |WEB Address: www.autodesk.com
 90
     1023
 91
       18
280
     0
281
     0
  0
CLASS
  1
AECC_GRADING_CRITERIA_SET
  2
AeccDbGradingCriteriaSet
  3
AeccLand10|Product Desc: Autodesk Civil 3D |Company: Autodesk,Inc. |WEB Address: www.autodesk.com
 90
     1023
 91
        2
280
     0
281
     0
  0
CLASS
  1
AECC_FORMAT_MANAGER_OBJECT
  2
AeccDbFormatManagerObject
  3
AeccLand10|Product Desc: Autodesk Civil 3D |Company: Autodesk,Inc. |WEB Address: www.autodesk.com
 90
     1023
 91
       18
280
     0
281
     0
  0
CLASS
  1
AECC_POINT_DESCRIPTION_KEY_SET_NODE
  2
AeccDbPointDescKeySetsNode
  3
AeccvBase10|Product Desc: Autodesk Civil 3D |Company: Autodesk,Inc. |WEB Address: www.autodesk.com
 90
     1023
 91
        1
280
     0
281
     0
  0
CLASS
  1
DICTIONARYVAR
  2
AcDbDictionaryVar
  3
ObjectDBX Classes
 90
        0
 91
        1
280
     0
281
     0
  0
CLASS
  1
IRD_DSC_DICT
  2
CIrdDscDict
  3
"IRD"
 90
     1025
 91
        1
280
     0
281
     0
  0
CLASS
  1
IRD_DSC_RECORD
  2
CIrdDscRecord
  3
"IRD"
 90
     1025
 91
        6
280
     0
281
     0
  0
CLASS
  1
IRD_OBJ_RECORD
  2
CIrdObjRecord
  3
"IRD"
 90
     1025
 91
        5
280
     0
281
     0
  0
ENDSEC
  0
SECTION
  2
TABLES
  0
TABLE
  2
VPORT
  5
8
330
0
100
AcDbSymbolTable
 70
     3
  0
VPORT
  5
1B31
330
8
100
AcDbSymbolTableRecord
100
AcDbViewportTableRecord
  2
*Active
 70
     0
 10
0.0
 20
0.0
 11
1.0
 21
1.0
 12
2990.592914389003
 22
2197.836143274086
 13
0.0
 23
0.0
 14
1.0
 24
1.0
 15
0.0
 25
0.0
 16
0.0
 26
0.0
 36
1.0
 17
0.0
 27
0.0
 37
0.0
 40
970.7276480350449
 41
1.730337078651685
 42
50.0
 43
0.0
 44
0.0
 50
0.0
 51
0.0
 71
     0
 72
   100
 73
     1
 74
     1
 75
     0
 76
     0
 77
     0
 78
     0
281
     0
 65
     1
110
0.0
120
0.0
130
0.0
111
1.0
121
0.0
131
0.0
112
0.0
122
1.0
132
0.0
 79
     0
146
0.0
  0
ENDTAB
  0
TABLE
  2
LTYPE
  5
5
330
0
100
AcDbSymbolTable
 70
     1
  0
LTYPE
  5
13
330
5
100
AcDbSymbolTableRecord
100
AcDbLinetypeTableRecord
  2
ByBlock
 70
     0
  3

 72
    65
 73
     0
 40
0.0
  0
LTYPE
  5
14
330
5
100
AcDbSymbolTableRecord
100
AcDbLinetypeTableRecord
  2
ByLayer
 70
     0
  3

 72
    65
 73
     0
 40
0.0
  0
LTYPE
  5
15
330
5
100
AcDbSymbolTableRecord
100
AcDbLinetypeTableRecord
  2
Continuous
 70
     0
  3
Solid line
 72
    65
 73
     0
 40
0.0
  0
ENDTAB
  0
TABLE
  2
LAYER
  5
2
330
0
100
AcDbSymbolTable
 70
     6
  0
LAYER
  5
10
330
2
100
AcDbSymbolTableRecord
100
AcDbLayerTableRecord
  2
0
 70
     0
 62
     7
  6
Continuous
370
    -3
390
F
  0
LAYER
  5
26
330
2
100
AcDbSymbolTableRecord
100
AcDbLayerTableRecord
  2
RESERVOIR
 70
     0
 62
     7
  6
Continuous
370
    -3
390
F
  0
LAYER
  5
27
330
2
100
AcDbSymbolTableRecord
100
AcDbLayerTableRecord
  2
TANK
 70
     0
 62
     7
  6
Continuous
370
    -3
390
F
  0
LAYER
  5
28
330
2
100
AcDbSymbolTableRecord
100
AcDbLayerTableRecord
  2
PUMP
 70
     0
 62
     7
  6
Continuous
370
    -3
390
F
  0
LAYER
  5
29
330
2
100
AcDbSymbolTableRecord
100
AcDbLayerTableRecord
  2
JUNCTION
 70
     0
 62
     7
  6
Continuous
370
    -3
390
F
  0
LAYER
  5
2A
330
2
100
AcDbSymbolTableRecord
100
AcDbLayerTableRecord
  2
PIPE
 70
     0
 62
     7
  6
Continuous
370
    -3
390
F
  0
ENDTAB
  0
TABLE
  2
STYLE
  5
3
330
0
100
AcDbSymbolTable
 70
     1
  0
STYLE
  5
11
330
3
100
AcDbSymbolTableRecord
100
AcDbTextStyleTableRecord
  2
Standard
 70
     0
 40
0.0
 41
1.0
 50
0.0
 71
     0
 42
0.2
  3
txt
  4

  0
ENDTAB
  0
TABLE
  2
VIEW
  5
6
330
0
100
AcDbSymbolTable
 70
     0
  0
ENDTAB
  0
TABLE
  2
UCS
  5
7
330
0
100
AcDbSymbolTable
 70
     0
  0
ENDTAB
  0
TABLE
  2
APPID
  5
9
330
0
100
AcDbSymbolTable
 70
     4
  0
APPID
  5
12
330
9
100
AcDbSymbolTableRecord
100
AcDbRegAppTableRecord
  2
ACAD
 70
     0
  0
APPID
  5
F81
330
9
100
AcDbSymbolTableRecord
100
AcDbRegAppTableRecord
  2
DCO15
 70
     0
  0
APPID
  5
F83
330
9
100
AcDbSymbolTableRecord
100
AcDbRegAppTableRecord
  2
ADE
 70
     0
  0
APPID
  5
F8E
330
9
100
AcDbSymbolTableRecord
100
AcDbRegAppTableRecord
  2
IRD
 70
     0
  0
ENDTAB
  0
TABLE
  2
DIMSTYLE
  5
A
330
0
100
AcDbSymbolTable
 70
     1
100
AcDbDimStyleTable
 71
     0
  0
DIMSTYLE
105
C9C
330
A
100
AcDbSymbolTableRecord
100
AcDbDimStyleTableRecord
  2
Standard
 70
     0
340
11
  0
ENDTAB
  0
TABLE
  2
BLOCK_RECORD
  5
1
330
0
100
AcDbSymbolTable
 70
    55
  0
BLOCK_RECORD
  5
22
330
1
100
AcDbSymbolTableRecord
100
AcDbBlockTableRecord
  2
*Model_Space
340
25
  0
BLOCK_RECORD
  5
1E
330
1
100
AcDbSymbolTableRecord
100
AcDbBlockTableRecord
  2
*Paper_Space
340
21
  0
BLOCK_RECORD
  5
2D
330
1
100
AcDbSymbolTableRecord
100
AcDbBlockTableRecord
  2
CIRCLE_IN_SQUARE
340
0
  0
BLOCK_RECORD
  5
37
330
1
100
AcDbSymbolTableRecord
100
AcDbBlockTableRecord
  2
SQUARE
340
0
  0
BLOCK_RECORD
  5
40
330
1
100
AcDbSymbolTableRecord
100
AcDbBlockTableRecord
  2
TRIANGLE
340
0
  0
BLOCK_RECORD
  5
48
330
1
100
AcDbSymbolTableRecord
100
AcDbBlockTableRecord
  2
TWO_CONCENTRIC_CIRCLES
340
0
  0
BLOCK_RECORD
  5
4D
330
1
100
AcDbSymbolTableRecord
100
AcDbBlockTableRecord
  2
CROSS_WITH_SMALL_CIRCLE
340
0
  0
BLOCK_RECORD
  5
59
330
1
100
AcDbSymbolTableRecord
100
AcDbBlockTableRecord
  2
FLOWARROW
340
0
  0
BLOCK_RECORD
  5
62
330
1
100
AcDbSymbolTableRecord
100
AcDbBlockTableRecord
  2
FILLED_TRIANGLE
340
0
  0
BLOCK_RECORD
  5
6A
330
1
100
AcDbSymbolTableRecord
100
AcDbBlockTableRecord
  2
FILLED_CIRCLE
340
0
  0
BLOCK_RECORD
  5
6E
330
1
100
AcDbSymbolTableRecord
100
AcDbBlockTableRecord
  2
FILLED_DIAMOND
340
0
  0
BLOCK_RECORD
  5
77
330
1
100
AcDbSymbolTableRecord
100
AcDbBlockTableRecord
  2
FILLED_SQUARE
340
0
  0
BLOCK_RECORD
  5
80
330
1
100
AcDbSymbolTableRecord
100
AcDbBlockTableRecord
  2
FILLED_WATERMARK
340
0
  0
BLOCK_RECORD
  5
88
330
1
100
AcDbSymbolTableRecord
100
AcDbBlockTableRecord
  2
DIAMOND
340
0
  0
BLOCK_RECORD
  5
91
330
1
100
AcDbSymbolTableRecord
100
AcDbBlockTableRecord
  2
WATERMARK
340
0
  0
BLOCK_RECORD
  5
99
330
1
100
AcDbSymbolTableRecord
100
AcDbBlockTableRecord
  2
PUMP
340
0
102
{BLKREFS
331
3DD
331
3DF
331
3E1
102
}
  0
BLOCK_RECORD
  5
A3
330
1
100
AcDbSymbolTableRecord
100
AcDbBlockTableRecord
  2
WETWELL
340
0
  0
BLOCK_RECORD
  5
B9
330
1
100
AcDbSymbolTableRecord
100
AcDbBlockTableRecord
  2
LINE
340
0
  0
BLOCK_RECORD
  5
C0
330
1
100
AcDbSymbolTableRecord
100
AcDbBlockTableRecord
  2
POLYGON
340
0
  0
BLOCK_RECORD
  5
CA
330
1
100
AcDbSymbolTableRecord
100
AcDbBlockTableRecord
  2
SOLIDRING
340
0
  0
BLOCK_RECORD
  5
CF
330
1
100
AcDbSymbolTableRecord
100
AcDbBlockTableRecord
  2
RESERVOIR
340
0
102
{BLKREFS
331
3D9
102
}
  0
BLOCK_RECORD
  5
E9
330
1
100
AcDbSymbolTableRecord
100
AcDbBlockTableRecord
  2
TANK
340
0
102
{BLKREFS
331
3DB
102
}
  0
BLOCK_RECORD
  5
103
330
1
100
AcDbSymbolTableRecord
100
AcDbBlockTableRecord
  2
VALVE
340
0
  0
BLOCK_RECORD
  5
110
330
1
100
AcDbSymbolTableRecord
100
AcDbBlockTableRecord
  2
X
340
0
  0
BLOCK_RECORD
  5
11B
330
1
100
AcDbSymbolTableRecord
100
AcDbBlockTableRecord
  2
CHECKVALVE
340
0
  0
BLOCK_RECORD
  5
127
330
1
100
AcDbSymbolTableRecord
100
AcDbBlockTableRecord
  2
CONSTITUENTSOURCE
340
0
  0
BLOCK_RECORD
  5
130
330
1
100
AcDbSymbolTableRecord
100
AcDbBlockTableRecord
  2
CONTROLLEDELEMENT
340
0
  0
BLOCK_RECORD
  5
143
330
1
100
AcDbSymbolTableRecord
100
AcDbBlockTableRecord
  2
CLOSEDPIPE
340
0
  0
BLOCK_RECORD
  5
14E
330
1
100
AcDbSymbolTableRecord
100
AcDbBlockTableRecord
  2
CIRCLE
340
0
  0
BLOCK_RECORD
  5
152
330
1
100
AcDbSymbolTableRecord
100
AcDbBlockTableRecord
  2
CROSS
340
0
  0
BLOCK_RECORD
  5
15D
330
1
100
AcDbSymbolTableRecord
100
AcDbBlockTableRecord
  2
HYDRANT
340
0
  0
BLOCK_RECORD
  5
16D
330
1
100
AcDbSymbolTableRecord
100
AcDbBlockTableRecord
  2
XINCIRCLE
340
0
  0
BLOCK_RECORD
  5
179
330
1
100
AcDbSymbolTableRecord
100
AcDbBlockTableRecord
  2
VARIABLE_SPEED_PUMP_BATTERY
340
0
  0
BLOCK_RECORD
  5
189
330
1
100
AcDbSymbolTableRecord
100
AcDbBlockTableRecord
  2
VALVETCV
340
0
  0
BLOCK_RECORD
  5
19E
330
1
100
AcDbSymbolTableRecord
100
AcDbBlockTableRecord
  2
VALVEFCV
340
0
  0
BLOCK_RECORD
  5
1B0
330
1
100
AcDbSymbolTableRecord
100
AcDbBlockTableRecord
  2
VALVEPBV
340
0
  0
BLOCK_RECORD
  5
1C1
330
1
100
AcDbSymbolTableRecord
100
AcDbBlockTableRecord
  2
VALVEPSV
340
0
  0
BLOCK_RECORD
  5
1D4
330
1
100
AcDbSymbolTableRecord
100
AcDbBlockTableRecord
  2
VALVEPRV
340
0
  0
BLOCK_RECORD
  5
1E7
330
1
100
AcDbSymbolTableRecord
100
AcDbBlockTableRecord
  2
DIVERSIONLINKDECORATION
340
0
  0
BLOCK_RECORD
  5
1F0
330
1
100
AcDbSymbolTableRecord
100
AcDbBlockTableRecord
  2
AIRVALVE
340
0
  0
BLOCK_RECORD
  5
20D
330
1
100
AcDbSymbolTableRecord
100
AcDbBlockTableRecord
  2
SAV_SRV
340
0
  0
BLOCK_RECORD
  5
22E
330
1
100
AcDbSymbolTableRecord
100
AcDbBlockTableRecord
  2
HYDROPNEUMATICTANK
340
0
  0
BLOCK_RECORD
  5
248
330
1
100
AcDbSymbolTableRecord
100
AcDbBlockTableRecord
  2
RUPTUREDISK
340
0
  0
BLOCK_RECORD
  5
26D
330
1
100
AcDbSymbolTableRecord
100
AcDbBlockTableRecord
  2
TURBINE
340
0
  0
BLOCK_RECORD
  5
27F
330
1
100
AcDbSymbolTableRecord
100
AcDbBlockTableRecord
  2
PERIODIC
340
0
  0
BLOCK_RECORD
  5
28A
330
1
100
AcDbSymbolTableRecord
100
AcDbBlockTableRecord
  2
HAMMERMANHOLE
340
0
  0
BLOCK_RECORD
  5
2F7
330
1
100
AcDbSymbolTableRecord
100
AcDbBlockTableRecord
  2
ORIFICE
340
0
  0
BLOCK_RECORD
  5
312
330
1
100
AcDbSymbolTableRecord
100
AcDbBlockTableRecord
  2
HAMMERVALVETOATMOSPHERE
340
0
  0
BLOCK_RECORD
  5
32C
330
1
100
AcDbSymbolTableRecord
100
AcDbBlockTableRecord
  2
HAMMERCHECKVALVE
340
0
  0
BLOCK_RECORD
  5
343
330
1
100
AcDbSymbolTableRecord
100
AcDbBlockTableRecord
  2
SURGETANK
340
0
  0
BLOCK_RECORD
  5
360
330
1
100
AcDbSymbolTableRecord
100
AcDbBlockTableRecord
  2
VALVEWITHLINEARAREACHANGE
340
0
  0
BLOCK_RECORD
  5
373
330
1
100
AcDbSymbolTableRecord
100
AcDbBlockTableRecord
  2
HEADWALL
340
0
  0
BLOCK_RECORD
  5
37C
330
1
100
AcDbSymbolTableRecord
100
AcDbBlockTableRecord
  2
CONTROL_STRUCTURE_START
340
0
  0
BLOCK_RECORD
  5
38F
330
1
100
AcDbSymbolTableRecord
100
AcDbBlockTableRecord
  2
CONTROL_STRUCTURE_STOP
340
0
  0
BLOCK_RECORD
  5
3A2
330
1
100
AcDbSymbolTableRecord
100
AcDbBlockTableRecord
  2
CONTROL_STRUCTURE_FLAPGATE
340
0
  0
BLOCK_RECORD
  5
3AE
330
1
100
AcDbSymbolTableRecord
100
AcDbBlockTableRecord
  2
CONTROL_STRUCTURE_CENTER
340
0
  0
BLOCK_RECORD
  5
3C1
330
1
100
AcDbSymbolTableRecord
100
AcDbBlockTableRecord
  2
CONTROL_STRUCTURE_STOPFLAPGATE
340
0
  0
ENDTAB
  0
ENDSEC
  0
SECTION
  2
BLOCKS
  0
BLOCK
  5
23
330
22
100
AcDbEntity
  8
0
100
AcDbBlockBegin
  2
*Model_Space
 70
     0
 10
0.0
 20
0.0
 30
0.0
  3
*Model_Space
  1

  0
ENDBLK
  5
24
330
22
100
AcDbEntity
  8
0
100
AcDbBlockEnd
  0
BLOCK
  5
1F
330
1E
100
AcDbEntity
 67
     1
  8
0
100
AcDbBlockBegin
  2
*Paper_Space
 70
     0
 10
0.0
 20
0.0
 30
0.0
  3
*Paper_Space
  1

  0
ENDBLK
  5
20
330
1E
100
AcDbEntity
 67
     1
  8
0
100
AcDbBlockEnd
  0
BLOCK
  5
2E
330
2D
100
AcDbEntity
  8
0
100
AcDbBlockBegin
  2
CIRCLE_IN_SQUARE
 70
     0
 10
0.0
 20
0.0
 30
0.0
  3
CIRCLE_IN_SQUARE
  1

  0
LWPOLYLINE
  5
2F
330
2D
100
AcDbEntity
  8
0
 62
     0
100
AcDbPolyline
 90
        4
 70
     1
 43
0.0
 10
-3.0
 20
3.0
 10
-3.0
 20
-3.0
 10
3.0
 20
-3.0
 10
3.0
 20
3.0
  0
CIRCLE
  5
35
330
2D
100
AcDbEntity
  8
0
 62
     0
100
AcDbCircle
 10
0.0
 20
0.0
 30
0.0
 40
1.199999999999999
  0
ENDBLK
  5
36
330
2D
100
AcDbEntity
  8
0
100
AcDbBlockEnd
  0
BLOCK
  5
38
330
37
100
AcDbEntity
  8
0
100
AcDbBlockBegin
  2
SQUARE
 70
     0
 10
0.0
 20
0.0
 30
0.0
  3
SQUARE
  1

  0
LWPOLYLINE
  5
39
330
37
100
AcDbEntity
  8
0
 62
     0
100
AcDbPolyline
 90
        4
 70
     1
 43
0.0
 10
-3.0
 20
3.0
 10
-3.0
 20
-3.0
 10
3.0
 20
-3.0
 10
3.0
 20
3.0
  0
ENDBLK
  5
3F
330
37
100
AcDbEntity
  8
0
100
AcDbBlockEnd
  0
BLOCK
  5
41
330
40
100
AcDbEntity
  8
0
100
AcDbBlockBegin
  2
TRIANGLE
 70
     0
 10
0.0
 20
0.0
 30
0.0
  3
TRIANGLE
  1

  0
LWPOLYLINE
  5
42
330
40
100
AcDbEntity
  8
0
 62
     0
100
AcDbPolyline
 90
        3
 70
     1
 43
0.0
 10
0.0
 20
2.5
 10
-2.5
 20
-2.5
 10
2.5
 20
-2.5
  0
ENDBLK
  5
47
330
40
100
AcDbEntity
  8
0
100
AcDbBlockEnd
  0
BLOCK
  5
49
330
48
100
AcDbEntity
  8
0
100
AcDbBlockBegin
  2
TWO_CONCENTRIC_CIRCLES
 70
     0
 10
0.0
 20
0.0
 30
0.0
  3
TWO_CONCENTRIC_CIRCLES
  1

  0
CIRCLE
  5
4A
330
48
100
AcDbEntity
  8
0
 62
     0
100
AcDbCircle
 10
0.0
 20
0.0
 30
0.0
 40
3.0
  0
CIRCLE
  5
4B
330
48
100
AcDbEntity
  8
0
 62
     0
100
AcDbCircle
 10
0.0
 20
0.0
 30
0.0
 40
1.199999999999999
  0
ENDBLK
  5
4C
330
48
100
AcDbEntity
  8
0
100
AcDbBlockEnd
  0
BLOCK
  5
4E
330
4D
100
AcDbEntity
  8
0
100
AcDbBlockBegin
  2
CROSS_WITH_SMALL_CIRCLE
 70
     0
 10
0.0
 20
0.0
 30
0.0
  3
CROSS_WITH_SMALL_CIRCLE
  1

  0
LWPOLYLINE
  5
4F
330
4D
100
AcDbEntity
  8
0
 62
     0
100
AcDbPolyline
 90
        2
 70
     0
 43
0.0
 10
-3.0
 20
0.0
 10
3.0
 20
0.0
  0
LWPOLYLINE
  5
53
330
4D
100
AcDbEntity
  8
0
 62
     0
100
AcDbPolyline
 90
        2
 70
     0
 43
0.0
 10
0.0
 20
-3.0
 10
0.0
 20
3.0
  0
CIRCLE
  5
57
330
4D
100
AcDbEntity
  8
0
 62
     0
100
AcDbCircle
 10
0.0
 20
0.0
 30
0.0
 40
1.199999999999999
  0
ENDBLK
  5
58
330
4D
100
AcDbEntity
  8
0
100
AcDbBlockEnd
  0
BLOCK
  5
5A
330
59
100
AcDbEntity
  8
0
100
AcDbBlockBegin
  2
FLOWARROW
 70
     0
 10
0.0
 20
0.0
 30
0.0
  3
FLOWARROW
  1

  0
LWPOLYLINE
  5
5B
330
59
100
AcDbEntity
  8
0
 62
     0
100
AcDbPolyline
 90
        4
 70
     1
 43
0.0
 10
3.0
 20
0.0
 10
-3.0
 20
-3.0
 10
-0.6
 20
0.0
 10
-3.0
 20
3.0
  0
ENDBLK
  5
61
330
59
100
AcDbEntity
  8
0
100
AcDbBlockEnd
  0
BLOCK
  5
63
330
62
100
AcDbEntity
  8
0
100
AcDbBlockBegin
  2
FILLED_TRIANGLE
 70
     0
 10
0.0
 20
0.0
 30
0.0
  3
FILLED_TRIANGLE
  1

  0
LWPOLYLINE
  5
64
330
62
100
AcDbEntity
  8
0
 62
     0
100
AcDbPolyline
 90
        3
 70
     1
 43
0.0
 10
0.0
 20
2.5
 10
2.5
 20
-2.5
 10
-2.5
 20
-2.5
  0
ENDBLK
  5
69
330
62
100
AcDbEntity
  8
0
100
AcDbBlockEnd
  0
BLOCK
  5
6B
330
6A
100
AcDbEntity
  8
0
100
AcDbBlockBegin
  2
FILLED_CIRCLE
 70
     0
 10
0.0
 20
0.0
 30
0.0
  3
FILLED_CIRCLE
  1

  0
CIRCLE
  5
6C
330
6A
100
AcDbEntity
  8
0
 62
     0
100
AcDbCircle
 10
0.0
 20
0.0
 30
0.0
 40
3.0
  0
ENDBLK
  5
6D
330
6A
100
AcDbEntity
  8
0
100
AcDbBlockEnd
  0
BLOCK
  5
6F
330
6E
100
AcDbEntity
  8
0
100
AcDbBlockBegin
  2
FILLED_DIAMOND
 70
     0
 10
0.0
 20
0.0
 30
0.0
  3
FILLED_DIAMOND
  1

  0
LWPOLYLINE
  5
70
330
6E
100
AcDbEntity
  8
0
 62
     0
100
AcDbPolyline
 90
        4
 70
     1
 43
0.0
 10
0.0
 20
3.0
 10
3.0
 20
0.0
 10
0.0
 20
-3.0
 10
-3.0
 20
0.0
  0
ENDBLK
  5
76
330
6E
100
AcDbEntity
  8
0
100
AcDbBlockEnd
  0
BLOCK
  5
78
330
77
100
AcDbEntity
  8
0
100
AcDbBlockBegin
  2
FILLED_SQUARE
 70
     0
 10
0.0
 20
0.0
 30
0.0
  3
FILLED_SQUARE
  1

  0
LWPOLYLINE
  5
79
330
77
100
AcDbEntity
  8
0
 62
     0
100
AcDbPolyline
 90
        4
 70
     1
 43
0.0
 10
-3.0
 20
3.0
 10
3.0
 20
3.0
 10
3.0
 20
-3.0
 10
-3.0
 20
-3.0
  0
ENDBLK
  5
7F
330
77
100
AcDbEntity
  8
0
100
AcDbBlockEnd
  0
BLOCK
  5
81
330
80
100
AcDbEntity
  8
0
100
AcDbBlockBegin
  2
FILLED_WATERMARK
 70
     0
 10
0.0
 20
0.0
 30
0.0
  3
FILLED_WATERMARK
  1

  0
LWPOLYLINE
  5
82
330
80
100
AcDbEntity
  8
0
 62
     0
100
AcDbPolyline
 90
        3
 70
     1
 43
0.0
 10
0.0
 20
-3.0
 10
3.0
 20
3.0
 10
-3.0
 20
3.0
  0
ENDBLK
  5
87
330
80
100
AcDbEntity
  8
0
100
AcDbBlockEnd
  0
BLOCK
  5
89
330
88
100
AcDbEntity
  8
0
100
AcDbBlockBegin
  2
DIAMOND
 70
     0
 10
0.0
 20
0.0
 30
0.0
  3
DIAMOND
  1

  0
LWPOLYLINE
  5
8A
330
88
100
AcDbEntity
  8
0
 62
     0
100
AcDbPolyline
 90
        4
 70
     1
 43
0.0
 10
0.0
 20
3.0
 10
3.0
 20
0.0
 10
0.0
 20
-3.0
 10
-3.0
 20
0.0
  0
ENDBLK
  5
90
330
88
100
AcDbEntity
  8
0
100
AcDbBlockEnd
  0
BLOCK
  5
92
330
91
100
AcDbEntity
  8
0
100
AcDbBlockBegin
  2
WATERMARK
 70
     0
 10
0.0
 20
0.0
 30
0.0
  3
WATERMARK
  1

  0
LWPOLYLINE
  5
93
330
91
100
AcDbEntity
  8
0
 62
     0
100
AcDbPolyline
 90
        3
 70
     1
 43
0.0
 10
0.0
 20
-3.0
 10
3.0
 20
3.0
 10
-3.0
 20
3.0
  0
ENDBLK
  5
98
330
91
100
AcDbEntity
  8
0
100
AcDbBlockEnd
  0
BLOCK
  5
9A
330
99
100
AcDbEntity
  8
0
100
AcDbBlockBegin
  2
PUMP
 70
     0
 10
0.0
 20
0.0
 30
0.0
  3
PUMP
  1

  0
ARC
  5
9B
330
99
100
AcDbEntity
  8
0
 62
     0
100
AcDbCircle
 10
-0.5
 20
0.5
 30
0.0
 40
2.5
100
AcDbArc
 50
90.0
 51
30.00000000000005
  0
LWPOLYLINE
  5
9C
330
99
100
AcDbEntity
  8
0
 62
     0
100
AcDbPolyline
 90
        4
 70
     0
 43
0.0
 10
-0.5
 20
3.0
 10
3.0
 20
3.0
 10
3.0
 20
1.0
 10
2.0
 20
1.0
  0
ENDBLK
  5
A2
330
99
100
AcDbEntity
  8
0
100
AcDbBlockEnd
  0
BLOCK
  5
A4
330
A3
100
AcDbEntity
  8
0
100
AcDbBlockBegin
  2
WETWELL
 70
     0
 10
0.0
 20
0.0
 30
0.0
  3
WETWELL
  1

  0
LWPOLYLINE
  5
A5
330
A3
100
AcDbEntity
  8
0
 62
     0
100
AcDbPolyline
 90
        4
 70
     1
 43
0.0
 10
-2.5
 20
3.0
 10
-2.5
 20
-3.0
 10
2.5
 20
-3.0
 10
2.5
 20
3.0
  0
LWPOLYLINE
  5
AB
330
A3
100
AcDbEntity
  8
0
 62
     0
100
AcDbPolyline
 90
        3
 70
     1
 43
0.0
 10
-0.833333333333333
 20
2.0
 10
0.833333333333333
 20
2.0
 10
0.0
 20
1.0
  0
LWPOLYLINE
  5
B0
330
A3
100
AcDbEntity
  8
0
 62
     0
100
AcDbPolyline
 90
        2
 70
     0
 43
0.0
 10
-2.5
 20
0.5
 10
2.5
 20
0.5
  0
LWPOLYLINE
  5
B4
330
A3
100
AcDbEntity
  8
0
 62
     0
100
AcDbPolyline
 90
        2
 70
     0
 43
0.0
 10
-0.833333333333333
 20
-0.25
 10
0.833333333333333
 20
-0.25
  0
ENDBLK
  5
B8
330
A3
100
AcDbEntity
  8
0
100
AcDbBlockEnd
  0
BLOCK
  5
BA
330
B9
100
AcDbEntity
  8
0
100
AcDbBlockBegin
  2
LINE
 70
     0
 10
0.0
 20
0.0
 30
0.0
  3
LINE
  1

  0
LWPOLYLINE
  5
BB
330
B9
100
AcDbEntity
  8
0
 62
     0
100
AcDbPolyline
 90
        2
 70
     0
 43
0.0
 10
-3.0
 20
0.0
 10
3.0
 20
0.0
  0
ENDBLK
  5
BF
330
B9
100
AcDbEntity
  8
0
100
AcDbBlockEnd
  0
BLOCK
  5
C1
330
C0
100
AcDbEntity
  8
0
100
AcDbBlockBegin
  2
POLYGON
 70
     0
 10
0.0
 20
0.0
 30
0.0
  3
POLYGON
  1

  0
LWPOLYLINE
  5
C2
330
C0
100
AcDbEntity
  8
0
 62
     0
100
AcDbPolyline
 90
        5
 70
     1
 43
0.0
 10
-1.5
 20
-3.0
 10
-3.0
 20
0.0
 10
0.0
 20
3.0
 10
3.0
 20
0.0
 10
1.5
 20
-3.0
  0
ENDBLK
  5
C9
330
C0
100
AcDbEntity
  8
0
100
AcDbBlockEnd
  0
BLOCK
  5
CB
330
CA
100
AcDbEntity
  8
0
100
AcDbBlockBegin
  2
SOLIDRING
 70
     0
 10
0.0
 20
0.0
 30
0.0
  3
SOLIDRING
  1

  0
CIRCLE
  5
CC
330
CA
100
AcDbEntity
  8
0
 62
     0
100
AcDbCircle
 10
0.0
 20
0.0
 30
0.0
 40
3.0
  0
CIRCLE
  5
CD
330
CA
100
AcDbEntity
  8
0
 62
     0
100
AcDbCircle
 10
0.0
 20
0.0
 30
0.0
 40
1.8
  0
ENDBLK
  5
CE
330
CA
100
AcDbEntity
  8
0
100
AcDbBlockEnd
  0
BLOCK
  5
D0
330
CF
100
AcDbEntity
  8
0
100
AcDbBlockBegin
  2
RESERVOIR
 70
     0
 10
0.0
 20
0.0
 30
0.0
  3
RESERVOIR
  1

  0
LWPOLYLINE
  5
D1
330
CF
100
AcDbEntity
  8
0
 62
     0
100
AcDbPolyline
 90
        4
 70
     0
 43
0.0
 10
-4.5
 20
2.25
 10
-1.5
 20
-2.25
 10
1.5
 20
-2.25
 10
4.5
 20
2.25
  0
LWPOLYLINE
  5
D7
330
CF
100
AcDbEntity
  8
0
 62
     0
100
AcDbPolyline
 90
        3
 70
     1
 43
0.0
 10
-0.75
 20
2.25
 10
0.75
 20
2.25
 10
0.0
 20
1.5
  0
LWPOLYLINE
  5
DC
330
CF
100
AcDbEntity
  8
0
 62
     0
100
AcDbPolyline
 90
        2
 70
     0
 43
0.0
 10
-4.0
 20
1.5
 10
4.0
 20
1.5
  0
LWPOLYLINE
  5
E0
330
CF
100
AcDbEntity
  8
0
 62
     0
100
AcDbPolyline
 90
        2
 70
     0
 43
0.0
 10
-0.375
 20
1.199999999999999
 10
0.375
 20
1.199999999999999
  0
LWPOLYLINE
  5
E4
330
CF
100
AcDbEntity
  8
0
 62
     0
100
AcDbPolyline
 90
        2
 70
     0
 43
0.0
 10
-0.1875
 20
1.0
 10
0.1875
 20
1.0
  0
ENDBLK
  5
E8
330
CF
100
AcDbEntity
  8
0
100
AcDbBlockEnd
  0
BLOCK
  5
EA
330
E9
100
AcDbEntity
  8
0
100
AcDbBlockBegin
  2
TANK
 70
     0
 10
0.0
 20
0.0
 30
0.0
  3
TANK
  1

  0
LWPOLYLINE
  5
EB
330
E9
100
AcDbEntity
  8
0
 62
     0
100
AcDbPolyline
 90
        4
 70
     1
 43
0.0
 10
-2.5
 20
3.0
 10
-2.5
 20
-3.0
 10
2.5
 20
-3.0
 10
2.5
 20
3.0
  0
LWPOLYLINE
  5
F1
330
E9
100
AcDbEntity
  8
0
 62
     0
100
AcDbPolyline
 90
        3
 70
     1
 43
0.0
 10
-0.833333333333333
 20
2.0
 10
0.833333333333333
 20
2.0
 10
0.0
 20
1.0
  0
LWPOLYLINE
  5
F6
330
E9
100
AcDbEntity
  8
0
 62
     0
100
AcDbPolyline
 90
        2
 70
     0
 43
0.0
 10
-2.5
 20
1.0
 10
2.5
 20
1.0
  0
LWPOLYLINE
  5
FA
330
E9
100
AcDbEntity
  8
0
 62
     0
100
AcDbPolyline
 90
        2
 70
     0
 43
0.0
 10
-0.4166666666666671
 20
0.8
 10
0.4166666666666671
 20
0.8
  0
LWPOLYLINE
  5
FE
330
E9
100
AcDbEntity
  8
0
 62
     0
100
AcDbPolyline
 90
        2
 70
     0
 43
0.0
 10
-0.208333333333333
 20
0.666666666666667
 10
0.208333333333333
 20
0.666666666666667
  0
ENDBLK
  5
102
330
E9
100
AcDbEntity
  8
0
100
AcDbBlockEnd
  0
BLOCK
  5
104
330
103
100
AcDbEntity
  8
0
100
AcDbBlockBegin
  2
VALVE
 70
     0
 10
0.0
 20
0.0
 30
0.0
  3
VALVE
  1

  0
LWPOLYLINE
  5
105
330
103
100
AcDbEntity
  8
0
 62
     0
100
AcDbPolyline
 90
        3
 70
     1
 43
0.0
 10
-3.0
 20
3.0
 10
-3.0
 20
-3.0
 10
0.0
 20
0.0
  0
LWPOLYLINE
  5
10A
330
103
100
AcDbEntity
  8
0
 62
     0
100
AcDbPolyline
 90
        3
 70
     1
 43
0.0
 10
0.0
 20
0.0
 10
3.0
 20
3.0
 10
3.0
 20
-3.0
  0
ENDBLK
  5
10F
330
103
100
AcDbEntity
  8
0
100
AcDbBlockEnd
  0
BLOCK
  5
111
330
110
100
AcDbEntity
  8
0
100
AcDbBlockBegin
  2
X
 70
     0
 10
0.0
 20
0.0
 30
0.0
  3
X
  1

  0
LWPOLYLINE
  5
112
330
110
100
AcDbEntity
  8
0
 62
     0
100
AcDbPolyline
 90
        2
 70
     0
 43
0.0
 10
-2.5
 20
2.5
 10
2.5
 20
-2.5
  0
LWPOLYLINE
  5
116
330
110
100
AcDbEntity
  8
0
 62
     0
100
AcDbPolyline
 90
        2
 70
     0
 43
0.0
 10
2.5
 20
2.5
 10
-2.5
 20
-2.5
  0
ENDBLK
  5
11A
330
110
100
AcDbEntity
  8
0
100
AcDbBlockEnd
  0
BLOCK
  5
11C
330
11B
100
AcDbEntity
  8
0
100
AcDbBlockBegin
  2
CHECKVALVE
 70
     0
 10
0.0
 20
0.0
 30
0.0
  3
CHECKVALVE
  1

  0
LWPOLYLINE
  5
11D
330
11B
100
AcDbEntity
  8
0
 62
     0
100
AcDbPolyline
 90
        3
 70
     0
 43
0.0
 10
-3.0
 20
3.0
 10
3.0
 20
0.0
 10
-3.0
 20
-3.0
  0
LWPOLYLINE
  5
122
330
11B
100
AcDbEntity
  8
0
 62
     0
100
AcDbPolyline
 90
        2
 70
     0
 43
0.0
 10
3.0
 20
3.0
 10
3.0
 20
-3.0
  0
ENDBLK
  5
126
330
11B
100
AcDbEntity
  8
0
100
AcDbBlockEnd
  0
BLOCK
  5
128
330
127
100
AcDbEntity
  8
0
100
AcDbBlockBegin
  2
CONSTITUENTSOURCE
 70
     0
 10
0.0
 20
0.0
 30
0.0
  3
CONSTITUENTSOURCE
  1

  0
ARC
  5
129
330
127
100
AcDbEntity
  8
0
 62
     0
100
AcDbCircle
 10
2.75
 20
-0.75
 30
0.0
 40
4.0
100
AcDbArc
 50
90.0
 51
180.0
  0
LWPOLYLINE
  5
12A
330
127
100
AcDbEntity
  8
0
 62
     0
100
AcDbPolyline
 90
        3
 70
     1
 43
0.0
 10
-3.0
 20
-0.5
 10
0.5
 20
-0.5
 10
-1.25
 20
-3.0
  0
ENDBLK
  5
12F
330
127
100
AcDbEntity
  8
0
100
AcDbBlockEnd
  0
BLOCK
  5
131
330
130
100
AcDbEntity
  8
0
100
AcDbBlockBegin
  2
CONTROLLEDELEMENT
 70
     0
 10
0.0
 20
0.0
 30
0.0
  3
CONTROLLEDELEMENT
  1

  0
LWPOLYLINE
  5
132
330
130
100
AcDbEntity
  8
0
 62
     0
100
AcDbPolyline
 90
        4
 70
     1
 43
0.0
 10
-7.0
 20
2.0
 10
-7.0
 20
1.0
 10
-6.0
 20
1.0
 10
-6.0
 20
2.0
  0
LWPOLYLINE
  5
138
330
130
100
AcDbEntity
  8
0
 62
     0
100
AcDbPolyline
 90
        4
 70
     1
 43
0.0
 10
-7.0
 20
-1.0
 10
-7.0
 20
-2.0
 10
-6.0
 20
-2.0
 10
-6.0
 20
-1.0
  0
LWPOLYLINE
  5
13E
330
130
100
AcDbEntity
  8
0
 62
     0
100
AcDbPolyline
 90
        2
 70
     0
 43
0.0
 10
-6.5
 20
-1.5
 10
-6.5
 20
1.5
  0
ENDBLK
  5
142
330
130
100
AcDbEntity
  8
0
100
AcDbBlockEnd
  0
BLOCK
  5
144
330
143
100
AcDbEntity
  8
0
100
AcDbBlockBegin
  2
CLOSEDPIPE
 70
     0
 10
0.0
 20
0.0
 30
0.0
  3
CLOSEDPIPE
  1

  0
LWPOLYLINE
  5
145
330
143
100
AcDbEntity
  8
0
 62
     0
100
AcDbPolyline
 90
        2
 70
     0
 43
0.0
 10
-1.0
 20
3.0
 10
-1.0
 20
-3.0
  0
LWPOLYLINE
  5
149
330
143
100
AcDbEntity
  8
0
 62
     0
100
AcDbPolyline
 90
        2
 70
     0
 43
0.0
 10
1.0
 20
3.0
 10
1.0
 20
-3.0
  0
ENDBLK
  5
14D
330
143
100
AcDbEntity
  8
0
100
AcDbBlockEnd
  0
BLOCK
  5
14F
330
14E
100
AcDbEntity
  8
0
100
AcDbBlockBegin
  2
CIRCLE
 70
     0
 10
0.0
 20
0.0
 30
0.0
  3
CIRCLE
  1

  0
CIRCLE
  5
150
330
14E
100
AcDbEntity
  8
0
 62
     0
100
AcDbCircle
 10
0.0
 20
0.0
 30
0.0
 40
3.0
  0
ENDBLK
  5
151
330
14E
100
AcDbEntity
  8
0
100
AcDbBlockEnd
  0
BLOCK
  5
153
330
152
100
AcDbEntity
  8
0
100
AcDbBlockBegin
  2
CROSS
 70
     0
 10
0.0
 20
0.0
 30
0.0
  3
CROSS
  1

  0
LWPOLYLINE
  5
154
330
152
100
AcDbEntity
  8
0
 62
     0
100
AcDbPolyline
 90
        2
 70
     0
 43
0.0
 10
-6.0
 20
0.0
 10
6.0
 20
0.0
  0
LWPOLYLINE
  5
158
330
152
100
AcDbEntity
  8
0
 62
     0
100
AcDbPolyline
 90
        2
 70
     0
 43
0.0
 10
0.0
 20
6.0
 10
0.0
 20
-6.0
  0
ENDBLK
  5
15C
330
152
100
AcDbEntity
  8
0
100
AcDbBlockEnd
  0
BLOCK
  5
15E
330
15D
100
AcDbEntity
  8
0
100
AcDbBlockBegin
  2
HYDRANT
 70
     0
 10
0.0
 20
0.0
 30
0.0
  3
HYDRANT
  1

  0
LWPOLYLINE
  5
15F
330
15D
100
AcDbEntity
  8
0
 62
     0
100
AcDbPolyline
 90
        4
 70
     1
 43
0.0
 10
-3.0
 20
0.6
 10
3.0
 20
0.6
 10
3.0
 20
-0.6
 10
-3.0
 20
-0.6
  0
LWPOLYLINE
  5
165
330
15D
100
AcDbEntity
  8
0
 62
     0
100
AcDbPolyline
 90
        4
 70
     1
 43
0.0
 10
-0.6
 20
3.0
 10
-0.6
 20
-3.0
 10
0.6
 20
-3.0
 10
0.6
 20
3.0
  0
CIRCLE
  5
16B
330
15D
100
AcDbEntity
  8
0
 62
     0
100
AcDbCircle
 10
0.0
 20
0.0
 30
0.0
 40
2.1
  0
ENDBLK
  5
16C
330
15D
100
AcDbEntity
  8
0
100
AcDbBlockEnd
  0
BLOCK
  5
16E
330
16D
100
AcDbEntity
  8
0
100
AcDbBlockBegin
  2
XINCIRCLE
 70
     0
 10
0.0
 20
0.0
 30
0.0
  3
XINCIRCLE
  1

  0
LWPOLYLINE
  5
16F
330
16D
100
AcDbEntity
  8
0
 62
     0
100
AcDbPolyline
 90
        2
 70
     0
 43
0.0
 10
-1.95
 20
1.95
 10
1.95
 20
-1.95
  0
LWPOLYLINE
  5
173
330
16D
100
AcDbEntity
  8
0
 62
     0
100
AcDbPolyline
 90
        2
 70
     0
 43
0.0
 10
1.95
 20
1.95
 10
-1.95
 20
-1.95
  0
CIRCLE
  5
177
330
16D
100
AcDbEntity
  8
0
 62
     0
100
AcDbCircle
 10
0.0
 20
0.0
 30
0.0
 40
2.729999999999998
  0
ENDBLK
  5
178
330
16D
100
AcDbEntity
  8
0
100
AcDbBlockEnd
  0
BLOCK
  5
17A
330
179
100
AcDbEntity
  8
0
100
AcDbBlockBegin
  2
VARIABLE_SPEED_PUMP_BATTERY
 70
     0
 10
0.0
 20
0.0
 30
0.0
  3
VARIABLE_SPEED_PUMP_BATTERY
  1

  0
ARC
  5
17B
330
179
100
AcDbEntity
  8
0
 62
     0
100
AcDbCircle
 10
-0.5
 20
0.25
 30
0.0
 40
1.25
100
AcDbArc
 50
90.0
 51
30.00000000000005
  0
LWPOLYLINE
  5
17C
330
179
100
AcDbEntity
  8
0
 62
     0
100
AcDbPolyline
 90
        4
 70
     0
 43
0.0
 10
-0.5
 20
1.5
 10
1.5
 20
1.5
 10
1.5
 20
0.5
 10
0.7058823529411759
 20
0.5
  0
LWPOLYLINE
  5
182
330
179
100
AcDbEntity
  8
0
 62
     0
100
AcDbPolyline
 90
        4
 70
     1
 43
0.0
 10
-3.0
 20
-3.0
 10
3.0
 20
-3.0
 10
3.0
 20
3.0
 10
-3.0
 20
3.0
  0
ENDBLK
  5
188
330
179
100
AcDbEntity
  8
0
100
AcDbBlockEnd
  0
BLOCK
  5
18A
330
189
100
AcDbEntity
  8
0
100
AcDbBlockBegin
  2
VALVETCV
 70
     0
 10
0.0
 20
0.0
 30
0.0
  3
VALVETCV
  1

  0
LWPOLYLINE
  5
18B
330
189
100
AcDbEntity
  8
0
 62
     0
100
AcDbPolyline
 90
        3
 70
     1
 43
0.0
 10
-3.0
 20
3.0
 10
-3.0
 20
-3.0
 10
0.0
 20
0.0
  0
LWPOLYLINE
  5
190
330
189
100
AcDbEntity
  8
0
 62
     0
100
AcDbPolyline
 90
        3
 70
     1
 43
0.0
 10
0.0
 20
0.0
 10
3.0
 20
3.0
 10
3.0
 20
-3.0
  0
LWPOLYLINE
  5
195
330
189
100
AcDbEntity
  8
0
 62
     0
100
AcDbPolyline
 90
        2
 70
     0
 43
0.0
 10
0.0
 20
0.0
 10
0.0
 20
3.6
  0
LWPOLYLINE
  5
199
330
189
100
AcDbEntity
  8
0
 62
     0
100
AcDbPolyline
 90
        2
 70
     0
 43
0.0
 10
-3.0
 20
3.6
 10
3.0
 20
3.6
  0
ENDBLK
  5
19D
330
189
100
AcDbEntity
  8
0
100
AcDbBlockEnd
  0
BLOCK
  5
19F
330
19E
100
AcDbEntity
  8
0
100
AcDbBlockBegin
  2
VALVEFCV
 70
     0
 10
0.0
 20
0.0
 30
0.0
  3
VALVEFCV
  1

  0
LWPOLYLINE
  5
1A0
330
19E
100
AcDbEntity
  8
0
 62
     0
100
AcDbPolyline
 90
        3
 70
     1
 43
0.0
 10
-3.0
 20
3.0
 10
-3.0
 20
-3.0
 10
0.0
 20
0.0
  0
LWPOLYLINE
  5
1A5
330
19E
100
AcDbEntity
  8
0
 62
     0
100
AcDbPolyline
 90
        3
 70
     1
 43
0.0
 10
0.0
 20
0.0
 10
3.0
 20
3.0
 10
3.0
 20
-3.0
  0
LWPOLYLINE
  5
1AA
330
19E
100
AcDbEntity
  8
0
 62
     0
100
AcDbPolyline
 90
        3
 70
     1
 43
0.0
 10
0.0
 20
0.0
 10
-0.9
 20
3.6
 10
0.9
 20
3.6
  0
ENDBLK
  5
1AF
330
19E
100
AcDbEntity
  8
0
100
AcDbBlockEnd
  0
BLOCK
  5
1B1
330
1B0
100
AcDbEntity
  8
0
100
AcDbBlockBegin
  2
VALVEPBV
 70
     0
 10
0.0
 20
0.0
 30
0.0
  3
VALVEPBV
  1

  0
LWPOLYLINE
  5
1B2
330
1B0
100
AcDbEntity
  8
0
 62
     0
100
AcDbPolyline
 90
        3
 70
     1
 43
0.0
 10
-3.0
 20
3.0
 10
-3.0
 20
-3.0
 10
0.0
 20
0.0
  0
LWPOLYLINE
  5
1B7
330
1B0
100
AcDbEntity
  8
0
 62
     0
100
AcDbPolyline
 90
        3
 70
     1
 43
0.0
 10
0.0
 20
0.0
 10
3.0
 20
3.0
 10
3.0
 20
-3.0
  0
LWPOLYLINE
  5
1BC
330
1B0
100
AcDbEntity
  8
0
 62
     0
100
AcDbPolyline
 90
        2
 70
     0
 43
0.0
 10
0.0
 20
-4.5
 10
0.0
 20
4.5
  0
ENDBLK
  5
1C0
330
1B0
100
AcDbEntity
  8
0
100
AcDbBlockEnd
  0
BLOCK
  5
1C2
330
1C1
100
AcDbEntity
  8
0
100
AcDbBlockBegin
  2
VALVEPSV
 70
     0
 10
0.0
 20
0.0
 30
0.0
  3
VALVEPSV
  1

  0
LWPOLYLINE
  5
1C3
330
1C1
100
AcDbEntity
  8
0
 62
     0
100
AcDbPolyline
 90
        3
 70
     1
 43
0.0
 10
-3.0
 20
3.0
 10
-3.0
 20
-3.0
 10
0.0
 20
0.0
  0
LWPOLYLINE
  5
1C8
330
1C1
100
AcDbEntity
  8
0
 62
     0
100
AcDbPolyline
 90
        3
 70
     1
 43
0.0
 10
0.0
 20
0.0
 10
3.0
 20
3.0
 10
3.0
 20
-3.0
  0
LWPOLYLINE
  5
1CD
330
1C1
100
AcDbEntity
  8
0
 62
     0
100
AcDbPolyline
 90
        4
 70
     1
 43
0.0
 10
0.0
 20
0.0
 10
0.0
 20
3.6
 10
-4.5
 20
3.6
 10
-4.5
 20
0.0
  0
ENDBLK
  5
1D3
330
1C1
100
AcDbEntity
  8
0
100
AcDbBlockEnd
  0
BLOCK
  5
1D5
330
1D4
100
AcDbEntity
  8
0
100
AcDbBlockBegin
  2
VALVEPRV
 70
     0
 10
0.0
 20
0.0
 30
0.0
  3
VALVEPRV
  1

  0
LWPOLYLINE
  5
1D6
330
1D4
100
AcDbEntity
  8
0
 62
     0
100
AcDbPolyline
 90
        3
 70
     1
 43
0.0
 10
-3.0
 20
3.0
 10
-3.0
 20
-3.0
 10
0.0
 20
0.0
  0
LWPOLYLINE
  5
1DB
330
1D4
100
AcDbEntity
  8
0
 62
     0
100
AcDbPolyline
 90
        3
 70
     1
 43
0.0
 10
0.0
 20
0.0
 10
3.0
 20
3.0
 10
3.0
 20
-3.0
  0
LWPOLYLINE
  5
1E0
330
1D4
100
AcDbEntity
  8
0
 62
     0
100
AcDbPolyline
 90
        4
 70
     1
 43
0.0
 10
0.0
 20
0.0
 10
0.0
 20
3.6
 10
4.5
 20
3.6
 10
4.5
 20
0.0
  0
ENDBLK
  5
1E6
330
1D4
100
AcDbEntity
  8
0
100
AcDbBlockEnd
  0
BLOCK
  5
1E8
330
1E7
100
AcDbEntity
  8
0
100
AcDbBlockBegin
  2
DIVERSIONLINKDECORATION
 70
     0
 10
0.0
 20
0.0
 30
0.0
  3
DIVERSIONLINKDECORATION
  1

  0
ARC
  5
1E9
330
1E7
100
AcDbEntity
  8
0
 62
     0
100
AcDbCircle
 10
-1.199999999999999
 20
0.3
 30
0.0
 40
3.0
100
AcDbArc
 50
0.0
 51
180.0
  0
LWPOLYLINE
  5
1EA
330
1E7
100
AcDbEntity
  8
0
 62
     0
100
AcDbPolyline
 90
        3
 70
     0
 43
0.0
 10
0.6
 20
1.5
 10
1.8
 20
0.3
 10
3.0
 20
1.5
  0
ENDBLK
  5
1EF
330
1E7
100
AcDbEntity
  8
0
100
AcDbBlockEnd
  0
BLOCK
  5
1F1
330
1F0
100
AcDbEntity
  8
0
100
AcDbBlockBegin
  2
AIRVALVE
 70
     0
 10
0.0
 20
0.0
 30
0.0
  3
AIRVALVE
  1

  0
LWPOLYLINE
  5
1F2
330
1F0
100
AcDbEntity
  8
0
 62
     0
100
AcDbPolyline
 90
        7
 70
     0
 43
0.0
 10
-2.25
 20
3.42857142857143
 10
-2.25
 20
2.571428571428568
 10
-3.0
 20
2.571428571428568
 10
-3.0
 20
0.8571428571428569
 10
-2.25
 20
-0.8571428571428569
 10
-0.75
 20
-1.714285714285708
 10
-0.75
 20
-2.571428571428568
  0
LWPOLYLINE
  5
1FB
330
1F0
100
AcDbEntity
  8
0
 62
     0
100
AcDbPolyline
 90
        7
 70
     0
 43
0.0
 10
-0.75
 20
3.42857142857143
 10
-0.75
 20
2.571428571428568
 10
3.0
 20
2.571428571428568
 10
3.0
 20
0.8571428571428569
 10
2.25
 20
-0.8571428571428569
 10
0.75
 20
-1.714285714285708
 10
0.75
 20
-2.571428571428568
  0
LWPOLYLINE
  5
204
330
1F0
100
AcDbEntity
  8
0
 62
     0
100
AcDbPolyline
 90
        2
 70
     0
 43
0.0
 10
-2.625
 20
1.714285714285708
 10
-0.375
 20
1.714285714285708
  0
LWPOLYLINE
  5
208
330
1F0
100
AcDbEntity
  8
0
 62
     0
100
AcDbPolyline
 90
        2
 70
     0
 43
0.0
 10
-1.5
 20
3.0
 10
-1.5
 20
1.714285714285708
  0
ENDBLK
  5
20C
330
1F0
100
AcDbEntity
  8
0
100
AcDbBlockEnd
  0
BLOCK
  5
20E
330
20D
100
AcDbEntity
  8
0
100
AcDbBlockBegin
  2
SAV_SRV
 70
     0
 10
0.0
 20
0.0
 30
0.0
  3
SAV_SRV
  1

  0
LWPOLYLINE
  5
20F
330
20D
100
AcDbEntity
  8
0
 62
     0
100
AcDbPolyline
 90
        2
 70
     0
 43
0.0
 10
-0.6
 20
0.0
 10
-0.6
 20
-3.0
  0
LWPOLYLINE
  5
213
330
20D
100
AcDbEntity
  8
0
 62
     0
100
AcDbPolyline
 90
        2
 70
     0
 43
0.0
 10
-3.0
 20
1.5
 10
3.0
 20
1.5
  0
LWPOLYLINE
  5
217
330
20D
100
AcDbEntity
  8
0
 62
     0
100
AcDbPolyline
 90
        2
 70
     0
 43
0.0
 10
-3.0
 20
0.125
 10
-2.399999999999999
 20
2.875
  0
LWPOLYLINE
  5
21B
330
20D
100
AcDbEntity
  8
0
 62
     0
100
AcDbPolyline
 90
        2
 70
     0
 43
0.0
 10
-1.8
 20
0.125
 10
-1.199999999999999
 20
2.875
  0
LWPOLYLINE
  5
21F
330
20D
100
AcDbEntity
  8
0
 62
     0
100
AcDbPolyline
 90
        2
 70
     0
 43
0.0
 10
-0.6
 20
0.125
 10
0.0
 20
2.875
  0
LWPOLYLINE
  5
223
330
20D
100
AcDbEntity
  8
0
 62
     0
100
AcDbPolyline
 90
        3
 70
     1
 43
0.0
 10
-2.399999999999999
 20
0.0
 10
1.199999999999999
 20
0.0
 10
-0.6
 20
1.5
  0
LWPOLYLINE
  5
228
330
20D
100
AcDbEntity
  8
0
 62
     0
100
AcDbPolyline
 90
        3
 70
     1
 43
0.0
 10
0.0
 20
1.5
 10
1.8
 20
0.0
 10
1.8
 20
3.0
  0
ENDBLK
  5
22D
330
20D
100
AcDbEntity
  8
0
100
AcDbBlockEnd
  0
BLOCK
  5
22F
330
22E
100
AcDbEntity
  8
0
100
AcDbBlockBegin
  2
HYDROPNEUMATICTANK
 70
     0
 10
0.0
 20
0.0
 30
0.0
  3
HYDROPNEUMATICTANK
  1

  0
LWPOLYLINE
  5
230
330
22E
100
AcDbEntity
  8
0
 62
     0
100
AcDbPolyline
 90
        2
 70
     0
 43
0.0
 10
-2.5
 20
2.0
 10
-2.5
 20
-2.0
  0
LWPOLYLINE
  5
234
330
22E
100
AcDbEntity
  8
0
 62
     0
100
AcDbPolyline
 90
        2
 70
     0
 43
0.0
 10
2.5
 20
-2.0
 10
2.5
 20
2.0
  0
LWPOLYLINE
  5
238
330
22E
100
AcDbEntity
  8
0
 62
     0
100
AcDbPolyline
 90
        3
 70
     1
 43
0.0
 10
-0.833333333333333
 20
2.0
 10
0.833333333333333
 20
2.0
 10
0.0
 20
1.0
  0
LWPOLYLINE
  5
23D
330
22E
100
AcDbEntity
  8
0
 62
     0
100
AcDbPolyline
 90
        2
 70
     0
 43
0.0
 10
-2.5
 20
1.0
 10
2.5
 20
1.0
  0
LWPOLYLINE
  5
241
330
22E
100
AcDbEntity
  8
0
 62
     0
100
AcDbPolyline
 90
        2
 70
     0
 43
0.0
 10
-0.4166666666666671
 20
0.8
 10
0.4166666666666671
 20
0.8
  0
ARC
  5
245
330
22E
100
AcDbEntity
  8
0
 62
     0
100
AcDbCircle
 10
0.0
 20
2.0
 30
0.0
 40
2.5
100
AcDbArc
 50
0.0
 51
180.0
  0
ARC
  5
246
330
22E
100
AcDbEntity
  8
0
 62
     0
100
AcDbCircle
 10
0.0
 20
-2.0
 30
0.0
 40
2.5
100
AcDbArc
 50
180.0
 51
0.0
  0
ENDBLK
  5
247
330
22E
100
AcDbEntity
  8
0
100
AcDbBlockEnd
  0
BLOCK
  5
249
330
248
100
AcDbEntity
  8
0
100
AcDbBlockBegin
  2
RUPTUREDISK
 70
     0
 10
0.0
 20
0.0
 30
0.0
  3
RUPTUREDISK
  1

  0
LWPOLYLINE
  5
24A
330
248
100
AcDbEntity
  8
0
 62
     0
100
AcDbPolyline
 90
        4
 70
     1
 43
0.0
 10
2.0
 20
3.0
 10
-2.0
 20
3.0
 10
-2.0
 20
-3.0
 10
2.0
 20
-3.0
  0
LWPOLYLINE
  5
250
330
248
100
AcDbEntity
  8
0
 62
     0
100
AcDbPolyline
 90
        2
 70
     0
 43
0.0
 10
-3.0
 20
0.0
 10
-2.0
 20
0.0
  0
LWPOLYLINE
  5
254
330
248
100
AcDbEntity
  8
0
 62
     0
100
AcDbPolyline
 90
        2
 70
     0
 43
0.0
 10
2.0
 20
0.0
 10
3.0
 20
1.0
  0
LWPOLYLINE
  5
258
330
248
100
AcDbEntity
  8
0
 62
     0
100
AcDbPolyline
 90
        2
 70
     0
 43
0.0
 10
2.0
 20
0.0
 10
3.0
 20
-1.0
  0
LWPOLYLINE
  5
25C
330
248
100
AcDbEntity
  8
0
 62
     0
100
AcDbPolyline
 90
        2
 70
     0
 43
0.0
 10
2.0
 20
0.0
 10
3.0
 20
0.0
  0
LWPOLYLINE
  5
260
330
248
100
AcDbEntity
  8
0
 62
     0
100
AcDbPolyline
 90
        2
 70
     0
 43
0.0
 10
0.0
 20
3.0
 10
0.0
 20
1.8
  0
LWPOLYLINE
  5
264
330
248
100
AcDbEntity
  8
0
 62
     0
100
AcDbPolyline
 90
        2
 70
     0
 43
0.0
 10
0.0
 20
0.6
 10
0.0
 20
-0.6
  0
LWPOLYLINE
  5
268
330
248
100
AcDbEntity
  8
0
 62
     0
100
AcDbPolyline
 90
        2
 70
     0
 43
0.0
 10
0.0
 20
-1.8
 10
0.0
 20
-3.0
  0
ENDBLK
  5
26C
330
248
100
AcDbEntity
  8
0
100
AcDbBlockEnd
  0
BLOCK
  5
26E
330
26D
100
AcDbEntity
  8
0
100
AcDbBlockBegin
  2
TURBINE
 70
     0
 10
0.0
 20
0.0
 30
0.0
  3
TURBINE
  1

  0
ARC
  5
26F
330
26D
100
AcDbEntity
  8
0
 62
     0
100
AcDbCircle
 10
0.0
 20
0.0
 30
0.0
 40
2.5
100
AcDbArc
 50
150.0
 51
270.0
  0
ARC
  5
270
330
26D
100
AcDbEntity
  8
0
 62
     0
100
AcDbCircle
 10
0.0
 20
0.0
 30
0.0
 40
2.5
100
AcDbArc
 50
330.0
 51
90.0
  0
LWPOLYLINE
  5
271
330
26D
100
AcDbEntity
  8
0
 62
     0
100
AcDbPolyline
 90
        4
 70
     0
 43
0.0
 10
0.0
 20
2.5
 10
-3.0
 20
2.5
 10
-3.0
 20
0.833333333333333
 10
-2.416666666666666
 20
0.833333333333333
  0
LWPOLYLINE
  5
277
330
26D
100
AcDbEntity
  8
0
 62
     0
100
AcDbPolyline
 90
        4
 70
     0
 43
0.0
 10
0.0
 20
-2.5
 10
3.0
 20
-2.5
 10
3.0
 20
-0.833333333333333
 10
2.416666666666666
 20
-0.833333333333333
  0
CIRCLE
  5
27D
330
26D
100
AcDbEntity
  8
0
 62
     0
100
AcDbCircle
 10
0.0
 20
0.0
 30
0.0
 40
0.25
  0
ENDBLK
  5
27E
330
26D
100
AcDbEntity
  8
0
100
AcDbBlockEnd
  0
BLOCK
  5
280
330
27F
100
AcDbEntity
  8
0
100
AcDbBlockBegin
  2
PERIODIC
 70
     0
 10
0.0
 20
0.0
 30
0.0
  3
PERIODIC
  1

  0
LWPOLYLINE
  5
281
330
27F
100
AcDbEntity
  8
0
 62
     0
100
AcDbPolyline
 90
        6
 70
     0
 43
0.0
 10
-3.0
 20
0.0
 10
-2.25
 20
3.0
 10
-0.75
 20
-3.0
 10
0.75
 20
3.0
 10
2.25
 20
-3.0
 10
3.0
 20
0.0
  0
ENDBLK
  5
289
330
27F
100
AcDbEntity
  8
0
100
AcDbBlockEnd
  0
BLOCK
  5
28B
330
28A
100
AcDbEntity
  8
0
100
AcDbBlockBegin
  2
HAMMERMANHOLE
 70
     0
 10
0.0
 20
0.0
 30
0.0
  3
HAMMERMANHOLE
  1

  0
LWPOLYLINE
  5
28C
330
28A
100
AcDbEntity
  8
0
 62
     0
100
AcDbPolyline
 90
        2
 70
     0
 43
0.0
 10
3.0
 20
-2.625
 10
3.0
 20
1.0
  0
LWPOLYLINE
  5
290
330
28A
100
AcDbEntity
  8
0
 62
     0
100
AcDbPolyline
 90
        2
 70
     0
 43
0.0
 10
-0.75
 20
-2.625
 10
-0.75
 20
1.0
  0
LWPOLYLINE
  5
294
330
28A
100
AcDbEntity
  8
0
 62
     0
100
AcDbPolyline
 90
        2
 70
     0
 43
0.0
 10
-0.75
 20
-2.25
 10
-3.0
 20
-2.25
  0
LWPOLYLINE
  5
298
330
28A
100
AcDbEntity
  8
0
 62
     0
100
AcDbPolyline
 90
        2
 70
     0
 43
0.0
 10
-0.75
 20
1.0
 10
0.0
 20
2.625
  0
LWPOLYLINE
  5
29C
330
28A
100
AcDbEntity
  8
0
 62
     0
100
AcDbPolyline
 90
        2
 70
     0
 43
0.0
 10
3.0
 20
1.0
 10
2.625
 20
2.625
  0
LWPOLYLINE
  5
2A0
330
28A
100
AcDbEntity
  8
0
 62
     0
100
AcDbPolyline
 90
       20
 70
     0
 43
0.0
 10
-0.75
 20
-2.625
 10
-0.726915638615883
 20
-2.683662924390088
 10
-0.658230968053413
 20
-2.74088137289061
 10
-0.5456372328531903
 20
-2.79524643740233
 10
-0.391906864453027
 20
-2.84541946960968
 10
-0.200825214724777
 20
-2.89016504294496
 10
0.0229026519516127
 20
-2.92838137289061
 10
0.27376781298835
 20
-2.95912744657064
 10
0.545593135546973
 20
-2.981646193610679
 10
0.8316853780495668
 20
-2.995383127723179
 10
1.125
 20
-3.0
 10
1.418314621950429
 20
-2.995383127723179
 10
1.704406864453028
 20
-2.981646193610679
 10
1.976232187011649
 20
-2.95912744657064
 10
2.22709734804839
 20
-2.92838137289061
 10
2.450825214724779
 20
-2.89016504294496
 10
2.64190686445303
 20
-2.84541946960968
 10
2.795637232853189
 20
-2.79524643740233
 10
2.908230968053409
 20
-2.74088137289061
 10
2.97691563861588
 20
-2.683662924390088
  0
LWPOLYLINE
  5
2B6
330
28A
100
AcDbEntity
  8
0
 62
     0
100
AcDbPolyline
 90
       20
 70
     0
 43
0.0
 10
-0.75
 20
1.0
 10
-0.726915638615883
 20
0.941337075609913
 10
-0.658230968053413
 20
0.8841186271093949
 10
-0.5456372328531903
 20
0.8297535625976701
 10
-0.391906864453027
 20
0.779580530390323
 10
-0.200825214724777
 20
0.7348349570550452
 10
0.0229026519516127
 20
0.696618627109395
 10
0.27376781298835
 20
0.6658725534293623
 10
0.545593135546973
 20
0.643353806389317
 10
0.8316853780495668
 20
0.6296168722768229
 10
1.125
 20
0.625
 10
1.418314621950429
 20
0.6296168722768229
 10
1.704406864453028
 20
0.643353806389317
 10
1.976232187011649
 20
0.6658725534293623
 10
2.22709734804839
 20
0.696618627109395
 10
2.450825214724779
 20
0.7348349570550452
 10
2.64190686445303
 20
0.7795805303903221
 10
2.795637232853189
 20
0.8297535625976701
 10
2.908230968053409
 20
0.8841186271093949
 10
2.97691563861588
 20
0.941337075609913
  0
LWPOLYLINE
  5
2CC
330
28A
100
AcDbEntity
  8
0
 62
     0
100
AcDbPolyline
 90
       40
 70
     1
 43
0.0
 10
2.625
 20
2.625
 10
2.60884094703112
 20
2.683662924390088
 10
2.56076167763739
 20
2.74088137289061
 10
2.481946062997228
 20
2.79524643740233
 10
2.37433480511712
 20
2.84541946960968
 10
2.240577650307336
 20
2.89016504294496
 10
2.08396814363387
 20
2.92838137289061
 10
1.90836253090816
 20
2.95912744657064
 10
1.71808480511712
 20
2.981646193610679
 10
1.5178202353653
 20
2.995383127723179
 10
1.3125
 20
3.0
 10
1.107179764634699
 20
2.995383127723179
 10
0.9069151948828819
 20
2.981646193610679
 10
0.716637469091845
 20
2.95912744657064
 10
0.5410318563661291
 20
2.92838137289061
 10
0.384422349692656
 20
2.89016504294496
 10
0.250665194882882
 20
2.84541946960968
 10
0.143053937002767
 20
2.79524643740233
 10
0.0642383223626111
 20
2.74088137289061
 10
0.0161590529688818
 20
2.683662924390088
 10
0.0
 20
2.625
 10
0.0161590529688818
 20
2.56633707560991
 10
0.0642383223626108
 20
2.50911862710939
 10
0.143053937002767
 20
2.454753562597669
 10
0.250665194882881
 20
2.404580530390318
 10
0.384422349692656
 20
2.359834957055038
 10
0.5410318563661291
 20
2.32161862710939
 10
0.716637469091845
 20
2.290872553429359
 10
0.906915194882881
 20
2.26835380638932
 10
1.107179764634699
 20
2.25461687227682
 10
1.3125
 20
2.25
 10
1.5178202353653
 20
2.25461687227682
 10
1.71808480511712
 20
2.26835380638932
 10
1.908362530908149
 20
2.290872553429359
 10
2.08396814363387
 20
2.32161862710939
 10
2.240577650307336
 20
2.359834957055038
 10
2.37433480511712
 20
2.404580530390318
 10
2.481946062997228
 20
2.454753562597669
 10
2.56076167763739
 20
2.50911862710939
 10
2.60884094703112
 20
2.56633707560991
  0
ENDBLK
  5
2F6
330
28A
100
AcDbEntity
  8
0
100
AcDbBlockEnd
  0
BLOCK
  5
2F8
330
2F7
100
AcDbEntity
  8
0
100
AcDbBlockBegin
  2
ORIFICE
 70
     0
 10
0.0
 20
0.0
 30
0.0
  3
ORIFICE
  1

  0
LWPOLYLINE
  5
2F9
330
2F7
100
AcDbEntity
  8
0
 62
     0
100
AcDbPolyline
 90
        6
 70
     0
 43
0.0
 10
2.5
 20
0.6
 10
1.666666666666668
 20
0.6
 10
1.666666666666668
 20
3.0
 10
-1.666666666666668
 20
3.0
 10
-1.666666666666668
 20
0.6
 10
-2.5
 20
0.6
  0
LWPOLYLINE
  5
301
330
2F7
100
AcDbEntity
  8
0
 62
     0
100
AcDbPolyline
 90
        6
 70
     0
 43
0.0
 10
2.5
 20
-0.6
 10
1.666666666666668
 20
-0.6
 10
1.666666666666668
 20
-3.0
 10
-1.666666666666668
 20
-3.0
 10
-1.666666666666668
 20
-0.6
 10
-2.5
 20
-0.6
  0
LWPOLYLINE
  5
309
330
2F7
100
AcDbEntity
  8
0
 62
     0
100
AcDbPolyline
 90
        2
 70
     0
 43
0.0
 10
0.0
 20
3.0
 10
0.0
 20
1.0
  0
LWPOLYLINE
  5
30D
330
2F7
100
AcDbEntity
  8
0
 62
     0
100
AcDbPolyline
 90
        2
 70
     0
 43
0.0
 10
0.0
 20
-3.0
 10
0.0
 20
-1.0
  0
ENDBLK
  5
311
330
2F7
100
AcDbEntity
  8
0
100
AcDbBlockEnd
  0
BLOCK
  5
313
330
312
100
AcDbEntity
  8
0
100
AcDbBlockBegin
  2
HAMMERVALVETOATMOSPHERE
 70
     0
 10
0.0
 20
0.0
 30
0.0
  3
HAMMERVALVETOATMOSPHERE
  1

  0
LWPOLYLINE
  5
314
330
312
100
AcDbEntity
  8
0
 62
     0
100
AcDbPolyline
 90
        3
 70
     1
 43
0.0
 10
-3.0
 20
3.0
 10
-3.0
 20
-3.0
 10
0.0
 20
0.0
  0
LWPOLYLINE
  5
319
330
312
100
AcDbEntity
  8
0
 62
     0
100
AcDbPolyline
 90
        3
 70
     1
 43
0.0
 10
0.0
 20
0.0
 10
3.0
 20
3.0
 10
3.0
 20
-3.0
  0
LWPOLYLINE
  5
31E
330
312
100
AcDbEntity
  8
0
 62
     0
100
AcDbPolyline
 90
        2
 70
     0
 43
0.0
 10
3.0
 20
0.0
 10
4.5
 20
0.0
  0
LWPOLYLINE
  5
322
330
312
100
AcDbEntity
  8
0
 62
     0
100
AcDbPolyline
 90
        2
 70
     0
 43
0.0
 10
-3.0
 20
0.0
 10
-4.5
 20
0.0
  0
LWPOLYLINE
  5
326
330
312
100
AcDbEntity
  8
0
 62
     0
100
AcDbPolyline
 90
        3
 70
     0
 43
0.0
 10
4.5
 20
0.75
 10
3.75
 20
0.0
 10
4.5
 20
-0.75
  0
ENDBLK
  5
32B
330
312
100
AcDbEntity
  8
0
100
AcDbBlockEnd
  0
BLOCK
  5
32D
330
32C
100
AcDbEntity
  8
0
100
AcDbBlockBegin
  2
HAMMERCHECKVALVE
 70
     0
 10
0.0
 20
0.0
 30
0.0
  3
HAMMERCHECKVALVE
  1

  0
LWPOLYLINE
  5
32E
330
32C
100
AcDbEntity
  8
0
 62
     0
100
AcDbPolyline
 90
        6
 70
     0
 43
0.0
 10
3.0
 20
0.6
 10
2.0
 20
0.6
 10
2.0
 20
3.0
 10
-2.0
 20
3.0
 10
-2.0
 20
0.6
 10
-3.0
 20
0.6
  0
LWPOLYLINE
  5
336
330
32C
100
AcDbEntity
  8
0
 62
     0
100
AcDbPolyline
 90
        6
 70
     0
 43
0.0
 10
3.0
 20
-0.6
 10
2.0
 20
-0.6
 10
2.0
 20
-3.0
 10
-2.0
 20
-3.0
 10
-2.0
 20
-0.6
 10
-3.0
 20
-0.6
  0
LWPOLYLINE
  5
33E
330
32C
100
AcDbEntity
  8
0
 62
     0
100
AcDbPolyline
 90
        2
 70
     0
 43
0.0
 10
-2.0
 20
3.0
 10
2.0
 20
-3.0
  0
ENDBLK
  5
342
330
32C
100
AcDbEntity
  8
0
100
AcDbBlockEnd
  0
BLOCK
  5
344
330
343
100
AcDbEntity
  8
0
100
AcDbBlockBegin
  2
SURGETANK
 70
     0
 10
0.0
 20
0.0
 30
0.0
  3
SURGETANK
  1

  0
LWPOLYLINE
  5
345
330
343
100
AcDbEntity
  8
0
 62
     0
100
AcDbPolyline
 90
        2
 70
     0
 43
0.0
 10
-2.5
 20
3.25
 10
-2.5
 20
-2.0
  0
LWPOLYLINE
  5
349
330
343
100
AcDbEntity
  8
0
 62
     0
100
AcDbPolyline
 90
        2
 70
     0
 43
0.0
 10
2.5
 20
-2.0
 10
2.5
 20
3.25
  0
LWPOLYLINE
  5
34D
330
343
100
AcDbEntity
  8
0
 62
     0
100
AcDbPolyline
 90
        3
 70
     1
 43
0.0
 10
-0.833333333333333
 20
2.0
 10
0.833333333333333
 20
2.0
 10
0.0
 20
1.0
  0
LWPOLYLINE
  5
352
330
343
100
AcDbEntity
  8
0
 62
     0
100
AcDbPolyline
 90
        2
 70
     0
 43
0.0
 10
-2.5
 20
1.0
 10
2.5
 20
1.0
  0
LWPOLYLINE
  5
356
330
343
100
AcDbEntity
  8
0
 62
     0
100
AcDbPolyline
 90
        2
 70
     0
 43
0.0
 10
-0.4166666666666671
 20
0.8
 10
0.4166666666666671
 20
0.8
  0
LWPOLYLINE
  5
35A
330
343
100
AcDbEntity
  8
0
 62
     0
100
AcDbPolyline
 90
        2
 70
     0
 43
0.0
 10
-2.5
 20
3.25
 10
2.5
 20
3.25
  0
ARC
  5
35E
330
343
100
AcDbEntity
  8
0
 62
     0
100
AcDbCircle
 10
0.0
 20
-2.0
 30
0.0
 40
2.5
100
AcDbArc
 50
180.0
 51
0.0
  0
ENDBLK
  5
35F
330
343
100
AcDbEntity
  8
0
100
AcDbBlockEnd
  0
BLOCK
  5
361
330
360
100
AcDbEntity
  8
0
100
AcDbBlockBegin
  2
VALVEWITHLINEARAREACHANGE
 70
     0
 10
0.0
 20
0.0
 30
0.0
  3
VALVEWITHLINEARAREACHANGE
  1

  0
LWPOLYLINE
  5
362
330
360
100
AcDbEntity
  8
0
 62
     0
100
AcDbPolyline
 90
        3
 70
     1
 43
0.0
 10
-3.0
 20
3.0
 10
-3.0
 20
-3.0
 10
0.0
 20
0.0
  0
LWPOLYLINE
  5
367
330
360
100
AcDbEntity
  8
0
 62
     0
100
AcDbPolyline
 90
        3
 70
     1
 43
0.0
 10
0.0
 20
0.0
 10
3.0
 20
3.0
 10
3.0
 20
-3.0
  0
LWPOLYLINE
  5
36C
330
360
100
AcDbEntity
  8
0
 62
     0
100
AcDbPolyline
 90
        4
 70
     0
 43
0.0
 10
-0.9
 20
0.9
 10
-0.9
 20
3.6
 10
0.9
 20
3.6
 10
0.9
 20
0.9
  0
ENDBLK
  5
372
330
360
100
AcDbEntity
  8
0
100
AcDbBlockEnd
  0
BLOCK
  5
374
330
373
100
AcDbEntity
  8
0
100
AcDbBlockBegin
  2
HEADWALL
 70
     0
 10
0.0
 20
0.0
 30
0.0
  3
HEADWALL
  1

  0
LWPOLYLINE
  5
375
330
373
100
AcDbEntity
  8
0
 62
     0
100
AcDbPolyline
 90
        4
 70
     0
 43
0.0
 10
-4.5
 20
2.25
 10
-1.5
 20
-2.25
 10
1.5
 20
-2.25
 10
4.5
 20
2.25
  0
ENDBLK
  5
37B
330
373
100
AcDbEntity
  8
0
100
AcDbBlockEnd
  0
BLOCK
  5
37D
330
37C
100
AcDbEntity
  8
0
100
AcDbBlockBegin
  2
CONTROL_STRUCTURE_START
 70
     0
 10
0.0
 20
0.0
 30
0.0
  3
CONTROL_STRUCTURE_START
  1

  0
LWPOLYLINE
  5
37E
330
37C
100
AcDbEntity
  8
0
 62
     0
100
AcDbPolyline
 90
        4
 70
     1
 43
0.0
 10
-0.75
 20
3.0
 10
-0.75
 20
1.5
 10
0.75
 20
1.5
 10
0.75
 20
3.0
  0
LWPOLYLINE
  5
384
330
37C
100
AcDbEntity
  8
0
 62
     0
100
AcDbPolyline
 90
        4
 70
     1
 43
0.0
 10
-0.75
 20
-1.5
 10
-0.75
 20
-3.0
 10
0.75
 20
-3.0
 10
0.75
 20
-1.5
  0
LWPOLYLINE
  5
38A
330
37C
100
AcDbEntity
  8
0
 62
     0
100
AcDbPolyline
 90
        2
 70
     0
 43
0.0
 10
0.0
 20
-2.25
 10
0.0
 20
2.25
  0
ENDBLK
  5
38E
330
37C
100
AcDbEntity
  8
0
100
AcDbBlockEnd
  0
BLOCK
  5
390
330
38F
100
AcDbEntity
  8
0
100
AcDbBlockBegin
  2
CONTROL_STRUCTURE_STOP
 70
     0
 10
0.0
 20
0.0
 30
0.0
  3
CONTROL_STRUCTURE_STOP
  1

  0
LWPOLYLINE
  5
391
330
38F
100
AcDbEntity
  8
0
 62
     0
100
AcDbPolyline
 90
        4
 70
     1
 43
0.0
 10
-0.75
 20
3.0
 10
-0.75
 20
1.5
 10
0.75
 20
1.5
 10
0.75
 20
3.0
  0
LWPOLYLINE
  5
397
330
38F
100
AcDbEntity
  8
0
 62
     0
100
AcDbPolyline
 90
        4
 70
     1
 43
0.0
 10
-0.75
 20
-1.5
 10
-0.75
 20
-3.0
 10
0.75
 20
-3.0
 10
0.75
 20
-1.5
  0
LWPOLYLINE
  5
39D
330
38F
100
AcDbEntity
  8
0
 62
     0
100
AcDbPolyline
 90
        2
 70
     0
 43
0.0
 10
0.0
 20
-2.25
 10
0.0
 20
2.25
  0
ENDBLK
  5
3A1
330
38F
100
AcDbEntity
  8
0
100
AcDbBlockEnd
  0
BLOCK
  5
3A3
330
3A2
100
AcDbEntity
  8
0
100
AcDbBlockBegin
  2
CONTROL_STRUCTURE_FLAPGATE
 70
     0
 10
0.0
 20
0.0
 30
0.0
  3
CONTROL_STRUCTURE_FLAPGATE
  1

  0
LWPOLYLINE
  5
3A4
330
3A2
100
AcDbEntity
  8
0
 62
     0
100
AcDbPolyline
 90
        3
 70
     1
 43
0.0
 10
0.0
 20
0.0
 10
-3.0
 20
1.5
 10
-3.0
 20
-1.5
  0
LWPOLYLINE
  5
3A9
330
3A2
100
AcDbEntity
  8
0
 62
     0
100
AcDbPolyline
 90
        2
 70
     0
 43
0.0
 10
0.0
 20
-3.0
 10
0.0
 20
3.0
  0
ENDBLK
  5
3AD
330
3A2
100
AcDbEntity
  8
0
100
AcDbBlockEnd
  0
BLOCK
  5
3AF
330
3AE
100
AcDbEntity
  8
0
100
AcDbBlockBegin
  2
CONTROL_STRUCTURE_CENTER
 70
     0
 10
0.0
 20
0.0
 30
0.0
  3
CONTROL_STRUCTURE_CENTER
  1

  0
LWPOLYLINE
  5
3B0
330
3AE
100
AcDbEntity
  8
0
 62
     0
100
AcDbPolyline
 90
        4
 70
     1
 43
0.0
 10
-0.75
 20
3.0
 10
-0.75
 20
1.5
 10
0.75
 20
1.5
 10
0.75
 20
3.0
  0
LWPOLYLINE
  5
3B6
330
3AE
100
AcDbEntity
  8
0
 62
     0
100
AcDbPolyline
 90
        4
 70
     1
 43
0.0
 10
-0.75
 20
-1.5
 10
-0.75
 20
-3.0
 10
0.75
 20
-3.0
 10
0.75
 20
-1.5
  0
LWPOLYLINE
  5
3BC
330
3AE
100
AcDbEntity
  8
0
 62
     0
100
AcDbPolyline
 90
        2
 70
     0
 43
0.0
 10
0.0
 20
-2.25
 10
0.0
 20
2.25
  0
ENDBLK
  5
3C0
330
3AE
100
AcDbEntity
  8
0
100
AcDbBlockEnd
  0
BLOCK
  5
3C2
330
3C1
100
AcDbEntity
  8
0
100
AcDbBlockBegin
  2
CONTROL_STRUCTURE_STOPFLAPGATE
 70
     0
 10
0.0
 20
0.0
 30
0.0
  3
CONTROL_STRUCTURE_STOPFLAPGATE
  1

  0
LWPOLYLINE
  5
3C3
330
3C1
100
AcDbEntity
  8
0
 62
     0
100
AcDbPolyline
 90
        4
 70
     1
 43
0.0
 10
-0.75
 20
3.0
 10
-0.75
 20
1.5
 10
0.75
 20
1.5
 10
0.75
 20
3.0
  0
LWPOLYLINE
  5
3C9
330
3C1
100
AcDbEntity
  8
0
 62
     0
100
AcDbPolyline
 90
        4
 70
     1
 43
0.0
 10
-0.75
 20
-1.5
 10
-0.75
 20
-3.0
 10
0.75
 20
-3.0
 10
0.75
 20
-1.5
  0
LWPOLYLINE
  5
3CF
330
3C1
100
AcDbEntity
  8
0
 62
     0
100
AcDbPolyline
 90
        2
 70
     0
 43
0.0
 10
0.0
 20
-2.25
 10
0.0
 20
2.25
  0
LWPOLYLINE
  5
3D3
330
3C1
100
AcDbEntity
  8
0
 62
     0
100
AcDbPolyline
 90
        3
 70
     1
 43
0.0
 10
0.0
 20
0.0
 10
-3.0
 20
1.5
 10
-3.0
 20
-1.5
  0
ENDBLK
  5
3D8
330
3C1
100
AcDbEntity
  8
0
100
AcDbBlockEnd
  0
ENDSEC
  0
SECTION
  2
ENTITIES
  0
INSERT
  5
3D9
102
{ACAD_XDICTIONARY
360
156A
102
}
330
22
100
AcDbEntity
  8
RESERVOIR
 62
     0
100
AcDbBlockReference
  2
RESERVOIR
 10
3193.34867692717
 20
2187.03488392258
 30
0.0
  0
TEXT
  5
3DA
330
22
100
AcDbEntity
  8
RESERVOIR
 62
     0
100
AcDbText
 10
3201.34867692717
 20
2196.368217255914
 30
0.0
 40
4.0
  1
R-1
 11
3201.34867692717
 21
2195.03488392258
 31
0.0
100
AcDbText
 73
     1
  0
INSERT
  5
3DB
102
{ACAD_XDICTIONARY
360
F94
102
}
330
22
100
AcDbEntity
  8
TANK
 62
     0
100
AcDbBlockReference
  2
TANK
 10
1615.19417687035
 20
4985.96475950094
 30
0.0
  0
TEXT
  5
3DC
330
22
100
AcDbEntity
  8
TANK
 62
     0
100
AcDbText
 10
1623.19417687035
 20
4995.298092834273
 30
0.0
 40
4.0
  1
T-1
 11
1623.19417687035
 21
4993.96475950094
 31
0.0
100
AcDbText
 73
     1
  0
INSERT
  5
3DD
102
{ACAD_XDICTIONARY
360
1567
102
}
330
22
100
AcDbEntity
  8
PUMP
 62
     0
100
AcDbBlockReference
  2
PUMP
 10
3188.94771401429
 20
2171.24025181712
 30
0.0
 50
233.615648184166
  0
TEXT
  5
3DE
330
22
100
AcDbEntity
  8
PUMP
 62
     0
100
AcDbText
 10
3196.94771401429
 20
2180.573585150454
 30
0.0
 40
4.0
  1
PMP-3
 11
3196.94771401429
 21
2179.24025181712
 31
0.0
100
AcDbText
 73
     1
  0
INSERT
  5
3DF
102
{ACAD_XDICTIONARY
360
1565
102
}
330
22
100
AcDbEntity
  8
PUMP
 62
     0
100
AcDbBlockReference
  2
PUMP
 10
3185.02648459945
 20
2174.80500583062
 30
0.0
 50
230.300926516524
  0
TEXT
  5
3E0
330
22
100
AcDbEntity
  8
PUMP
 62
     0
100
AcDbText
 10
3193.02648459945
 20
2184.138339163954
 30
0.0
 40
4.0
  1
PMP-2
 11
3193.02648459945
 21
2182.80500583062
 31
0.0
100
AcDbText
 73
     1
  0
INSERT
  5
3E1
102
{ACAD_XDICTIONARY
360
1563
102
}
330
22
100
AcDbEntity
  8
PUMP
 62
     0
100
AcDbBlockReference
  2
PUMP
 10
3181.3531169871
 20
2178.54799754479
 30
0.0
 50
229.265696523636
  0
TEXT
  5
3E2
330
22
100
AcDbEntity
  8
PUMP
 62
     0
100
AcDbText
 10
3189.353116987101
 20
2187.881330878123
 30
0.0
 40
4.0
  1
PMP-1
 11
3189.353116987101
 21
2186.54799754479
 31
0.0
100
AcDbText
 73
     1
  0
LWPOLYLINE
  5
3E3
330
22
100
AcDbEntity
  8
PIPE
 62
     0
100
AcDbPolyline
 90
        3
 70
     0
 43
0.0
 10
3019.35992284231
 20
2069.026294837831
 10
3036.44642095694
 20
1995.44587509043
 10
3041.43614445608
 20
1955.52808787985
  0
LWPOLYLINE
  5
3E8
330
22
100
AcDbEntity
  8
PIPE
 62
     0
100
AcDbPolyline
 90
        2
 70
     0
 43
0.0
 10
3011.497803461211
 20
2102.72492821888
 10
3019.35992284231
 20
2069.026294837831
  0
LWPOLYLINE
  5
3EC
330
22
100
AcDbEntity
  8
PIPE
 62
     0
100
AcDbPolyline
 90
        3
 70
     0
 43
0.0
 10
3188.94771401429
 20
2171.24025181712
 10
3185.20472230012
 20
2166.16047734789
 10
3181.1052551846
 20
2170.08170676273
  0
LWPOLYLINE
  5
3F1
330
22
100
AcDbEntity
  8
PIPE
 62
     0
100
AcDbPolyline
 90
        3
 70
     0
 43
0.0
 10
3189.17051114014
 20
2180.20087372214
 10
3193.31453768082
 20
2176.58738283736
 10
3188.94771401429
 20
2171.24025181712
  0
LWPOLYLINE
  5
3F6
330
22
100
AcDbEntity
  8
PIPE
 62
     0
100
AcDbPolyline
 90
        2
 70
     0
 43
0.0
 10
3185.02648459945
 20
2174.80500583062
 10
3181.1052551846
 20
2170.08170676273
  0
LWPOLYLINE
  5
3FA
330
22
100
AcDbEntity
  8
PIPE
 62
     0
100
AcDbPolyline
 90
        2
 70
     0
 43
0.0
 10
3189.17051114014
 20
2180.20087372214
 10
3185.02648459945
 20
2174.80500583062
  0
LWPOLYLINE
  5
3FE
330
22
100
AcDbEntity
  8
PIPE
 62
     0
100
AcDbPolyline
 90
        3
 70
     0
 43
0.0
 10
3181.1052551846
 20
2170.08170676273
 10
3177.36226347043
 20
2173.91381732724
 10
3181.3531169871
 20
2178.54799754479
  0
LWPOLYLINE
  5
403
330
22
100
AcDbEntity
  8
PIPE
 62
     0
100
AcDbPolyline
 90
        4
 70
     0
 43
0.0
 10
3019.35992284231
 20
2069.026294837831
 10
3170.48318168017
 20
2068.97031958531
 10
3181.07382562564
 20
2155.69894342937
 10
3181.1052551846
 20
2170.08170676273
  0
LWPOLYLINE
  5
409
330
22
100
AcDbEntity
  8
PIPE
 62
     0
100
AcDbPolyline
 90
        2
 70
     0
 43
0.0
 10
3189.17051114014
 20
2180.20087372214
 10
3193.34867692717
 20
2187.03488392258
  0
LWPOLYLINE
  5
40D
330
22
100
AcDbEntity
  8
PIPE
 62
     0
100
AcDbPolyline
 90
        3
 70
     0
 43
0.0
 10
3181.3531169871
 20
2178.54799754479
 10
3185.34954043192
 20
2183.049891968861
 10
3189.17051114014
 20
2180.20087372214
  0
LWPOLYLINE
  5
412
330
22
100
AcDbEntity
  8
PIPE
 62
     0
100
AcDbPolyline
 90
        3
 70
     0
 43
0.0
 10
1654.58749041709
 20
3092.951911435011
 10
1655.52117041483
 20
2643.57254695795
 10
1659.51294893676
 20
2625.60954294143
  0
LWPOLYLINE
  5
417
330
22
100
AcDbEntity
  8
PIPE
 62
     0
100
AcDbPolyline
 90
        2
 70
     0
 43
0.0
 10
1655.90314270058
 20
3289.93494530401
 10
1654.58749041709
 20
3092.951911435011
  0
LWPOLYLINE
  5
41B
330
22
100
AcDbEntity
  8
PIPE
 62
     0
100
AcDbPolyline
 90
       10
 70
     0
 43
0.0
 10
2289.25064182636
 20
1262.8616204347
 10
2288.750524454201
 20
1180.69451872756
 10
2281.41715546966
 20
1152.69438311982
 10
2272.08377676207
 20
1132.69428625715
 10
2109.41640193911
 20
793.3593333290947
 10
1960.08233975664
 20
482.691156578579
 10
1953.41555453079
 20
461.3577068914489
 10
1942.74883600783
 20
440.0242702379308
 10
1926.748758223389
 20
438.0242605516628
 10
1900.74863182368
 20
452.0243283555349
  0
LWPOLYLINE
  5
427
330
22
100
AcDbEntity
  8
PIPE
 62
     0
100
AcDbPolyline
 90
        5
 70
     0
 43
0.0
 10
2289.25064182636
 20
1262.8616204347
 10
2219.08363671165
 20
1262.8616204347
 10
2190.75016675542
 20
1242.86152325576
 10
2168.250058260762
 20
1233.69481204874
 10
2162.41669679919
 20
1220.36141392945
  0
LWPOLYLINE
  5
42E
330
22
100
AcDbEntity
  8
PIPE
 62
     0
100
AcDbPolyline
 90
        2
 70
     0
 43
0.0
 10
2289.39455167104
 20
1305.05186160644
 10
2289.25064182636
 20
1262.8616204347
  0
LWPOLYLINE
  5
432
330
22
100
AcDbEntity
  8
PIPE
 62
     0
100
AcDbPolyline
 90
        2
 70
     0
 43
0.0
 10
2328.58804372575
 20
1517.41429253059
 10
2324.15068904479
 20
1440.27258531822
  0
LWPOLYLINE
  5
436
330
22
100
AcDbEntity
  8
PIPE
 62
     0
100
AcDbPolyline
 90
        2
 70
     0
 43
0.0
 10
2328.58804372575
 20
1517.41429253059
 10
2412.2629551455
 20
1517.96763761267
  0
LWPOLYLINE
  5
43A
330
22
100
AcDbEntity
  8
PIPE
 62
     0
100
AcDbPolyline
 90
        2
 70
     0
 43
0.0
 10
2203.55496305639
 20
1517.96770372508
 10
2328.58804372575
 20
1517.41429253059
  0
LWPOLYLINE
  5
43E
330
22
100
AcDbEntity
  8
PIPE
 62
     0
100
AcDbPolyline
 90
        2
 70
     0
 43
0.0
 10
1860.9589730097
 20
1962.08845667116
 10
1857.11898464662
 20
1885.7148716058
  0
LWPOLYLINE
  5
442
330
22
100
AcDbEntity
  8
PIPE
 62
     0
100
AcDbPolyline
 90
        2
 70
     0
 43
0.0
 10
1857.11898464662
 20
1885.7148716058
 10
1885.54449281248
 20
1886.92959968055
  0
LWPOLYLINE
  5
446
330
22
100
AcDbEntity
  8
PIPE
 62
     0
100
AcDbPolyline
 90
        4
 70
     0
 43
0.0
 10
1819.18891129221
 20
1962.333682996989
 10
1818.32714914575
 20
1924.41614696257
 10
1839.44032173408
 20
1886.06772983685
 10
1857.11898464662
 20
1885.7148716058
  0
LWPOLYLINE
  5
44C
330
22
100
AcDbEntity
  8
PIPE
 62
     0
100
AcDbPolyline
 90
        7
 70
     0
 43
0.0
 10
1898.5058203101
 20
2116.11586736103
 10
1900.21249518739
 20
2092.22241861136
 10
1899.78582646807
 20
2073.448994593761
 10
1899.78582646807
 20
2056.80891421452
 10
1896.37247671349
 20
2052.54222693779
 10
1875.892378186
 20
2051.68888948244
 10
1861.38564172902
 20
2050.8355520271
  0
LWPOLYLINE
  5
455
330
22
100
AcDbEntity
  8
PIPE
 62
     0
100
AcDbPolyline
 90
        9
 70
     0
 43
0.0
 10
1861.38564172902
 20
2050.8355520271
 10
1845.59889911408
 20
2052.54222693779
 10
1838.77219960492
 20
2058.51558912521
 10
1840.47887448221
 20
2078.9956880535
 10
1840.47887448221
 20
2102.88913680318
 10
1840.47887448221
 20
2114.83586117802
 10
1858.39896069376
 20
2116.11586736103
 10
1879.30572794058
 20
2116.11586736103
 10
1898.5058203101
 20
2116.11586736103
  0
LWPOLYLINE
  5
460
330
22
100
AcDbEntity
  8
PIPE
 62
     0
100
AcDbPolyline
 90
        2
 70
     0
 43
0.0
 10
1860.9589730097
 20
1962.08845667116
 10
1861.38564172902
 20
2050.8355520271
  0
LWPOLYLINE
  5
464
330
22
100
AcDbEntity
  8
PIPE
 62
     0
100
AcDbPolyline
 90
        2
 70
     0
 43
0.0
 10
1860.9589730097
 20
1962.08845667116
 10
1819.18891129221
 20
1962.333682996989
  0
LWPOLYLINE
  5
468
330
22
100
AcDbEntity
  8
PIPE
 62
     0
100
AcDbPolyline
 90
        2
 70
     0
 43
0.0
 10
1951.08555668777
 20
1960.63061712798
 10
1860.9589730097
 20
1962.08845667116
  0
LWPOLYLINE
  5
46C
330
22
100
AcDbEntity
  8
PIPE
 62
     0
100
AcDbPolyline
 90
        8
 70
     0
 43
0.0
 10
2044.85319103781
 20
1961.23511921581
 10
2044.85319103781
 20
2002.1953170724
 10
2038.02649152864
 20
2014.56871017491
 10
2034.61314177406
 20
2044.00885238433
 10
1980.85288313939
 20
2040.16883383528
 10
1966.772815401739
 20
2034.19547164786
 10
1958.66610973461
 20
2035.47547783088
 10
1955.25275998003
 20
2041.87550874597
  0
LWPOLYLINE
  5
476
330
22
100
AcDbEntity
  8
PIPE
 62
     0
100
AcDbPolyline
 90
        2
 70
     0
 43
0.0
 10
2044.85319103781
 20
1961.23511921581
 10
1951.08555668777
 20
1960.63061712798
  0
LWPOLYLINE
  5
47A
330
22
100
AcDbEntity
  8
PIPE
 62
     0
100
AcDbPolyline
 90
        2
 70
     0
 43
0.0
 10
2203.16259659972
 20
1963.01267298183
 10
2044.85319103781
 20
1961.23511921581
  0
LWPOLYLINE
  5
47E
330
22
100
AcDbEntity
  8
PIPE
 62
     0
100
AcDbPolyline
 90
        2
 70
     0
 43
0.0
 10
2300.00103351613
 20
1961.66175457744
 10
2302.13437711275
 20
2040.16880046923
  0
LWPOLYLINE
  5
482
330
22
100
AcDbEntity
  8
PIPE
 62
     0
100
AcDbPolyline
 90
        2
 70
     0
 43
0.0
 10
2300.00103351613
 20
1961.66175457744
 10
2203.16259659972
 20
1963.01267298183
  0
LWPOLYLINE
  5
486
330
22
100
AcDbEntity
  8
PIPE
 62
     0
100
AcDbPolyline
 90
        2
 70
     0
 43
0.0
 10
2413.9784144386
 20
1960.51781128117
 10
2300.00103351613
 20
1961.66175457744
  0
LWPOLYLINE
  5
48A
330
22
100
AcDbEntity
  8
PIPE
 62
     0
100
AcDbPolyline
 90
        3
 70
     0
 43
0.0
 10
2565.38899890765
 20
2301.29012568875
 10
2567.522342504261
 20
2380.65050903589
 10
2571.36236097817
 20
2394.30390832141
  0
LWPOLYLINE
  5
48F
330
22
100
AcDbEntity
  8
PIPE
 62
     0
100
AcDbPolyline
 90
        4
 70
     0
 43
0.0
 10
2565.38899890765
 20
2301.29012568875
 10
2446.35564476797
 20
2301.3342679397
 10
2432.04904666553
 20
2310.5914784666
 10
2433.73217585405
 20
2324.05651196026
  0
LWPOLYLINE
  5
495
330
22
100
AcDbEntity
  8
PIPE
 62
     0
100
AcDbPolyline
 90
        2
 70
     0
 43
0.0
 10
2645.00255148422
 20
2301.31601329885
 10
2565.38899890765
 20
2301.29012568875
  0
LWPOLYLINE
  5
499
330
22
100
AcDbEntity
  8
PIPE
 62
     0
100
AcDbPolyline
 90
        7
 70
     0
 43
0.0
 10
2222.94471315512
 20
2684.50075856143
 10
2139.21097274989
 20
2683.43408674225
 10
2127.47758237463
 20
2687.70077401898
 10
2120.54421533471
 20
2693.03413311489
 10
2121.07755126086
 20
2715.9675772273
 10
2121.610887187
 20
2740.501029068481
 10
2117.34419977782
 20
2749.56773953153
  0
LWPOLYLINE
  5
4A2
330
22
100
AcDbEntity
  8
PIPE
 62
     0
100
AcDbPolyline
 90
        2
 70
     0
 43
0.0
 10
2237.34478316112
 20
2786.9012532029
 10
2203.74461981379
 20
2790.63460457004
  0
LWPOLYLINE
  5
4A6
330
22
100
AcDbEntity
  8
PIPE
 62
     0
100
AcDbPolyline
 90
        3
 70
     0
 43
0.0
 10
2237.34478316112
 20
2786.9012532029
 10
2249.611509462519
 20
2869.5683191895
 10
2267.211595025401
 20
2867.434975551141
  0
LWPOLYLINE
  5
4AB
330
22
100
AcDbEntity
  8
PIPE
 62
     0
100
AcDbPolyline
 90
        2
 70
     0
 43
0.0
 10
2235.21143945652
 20
2765.567816819261
 10
2237.34478316112
 20
2786.9012532029
  0
LWPOLYLINE
  5
4AF
330
22
100
AcDbEntity
  8
PIPE
 62
     0
100
AcDbPolyline
 90
        2
 70
     0
 43
0.0
 10
2235.21143945652
 20
2765.567816819261
 10
2264.54491539466
 20
2760.23445772335
  0
LWPOLYLINE
  5
4B3
330
22
100
AcDbEntity
  8
PIPE
 62
     0
100
AcDbPolyline
 90
        2
 70
     0
 43
0.0
 10
2222.94471315512
 20
2684.50075856143
 10
2235.21143945652
 20
2765.567816819261
  0
LWPOLYLINE
  5
4B7
330
22
100
AcDbEntity
  8
PIPE
 62
     0
100
AcDbPolyline
 90
        2
 70
     0
 43
0.0
 10
2225.07805685971
 20
2627.96715214479
 10
2222.94471315512
 20
2684.50075856143
  0
LWPOLYLINE
  5
4BB
330
22
100
AcDbEntity
  8
PIPE
 62
     0
100
AcDbPolyline
 90
        2
 70
     0
 43
0.0
 10
2225.07805685971
 20
2627.96715214479
 10
2245.18680287966
 20
2627.13619411159
  0
LWPOLYLINE
  5
4BF
330
22
100
AcDbEntity
  8
PIPE
 62
     0
100
AcDbPolyline
 90
        2
 70
     0
 43
0.0
 10
2097.10618886996
 20
2627.01973246144
 10
2225.07805685971
 20
2627.96715214479
  0
LWPOLYLINE
  5
4C3
330
22
100
AcDbEntity
  8
PIPE
 62
     0
100
AcDbPolyline
 90
        2
 70
     0
 43
0.0
 10
2069.1763492105
 20
4357.4792171664
 10
2064.90966180132
 20
4295.078915744249
  0
LWPOLYLINE
  5
4C7
330
22
100
AcDbEntity
  8
PIPE
 62
     0
100
AcDbPolyline
 90
        2
 70
     0
 43
0.0
 10
2069.1763492105
 20
4357.4792171664
 10
2087.84310662568
 20
4360.14589671435
  0
LWPOLYLINE
  5
4CB
330
22
100
AcDbEntity
  8
PIPE
 62
     0
100
AcDbPolyline
 90
        9
 70
     0
 43
0.0
 10
2064.90966180132
 20
4295.078915744249
 10
2032.90950623244
 20
4306.81230575525
 10
2008.37605362963
 20
4318.012359856658
 10
1996.10932732823
 20
4332.41242941562
 10
1997.17599918052
 20
4347.34583488417
 10
2005.70937399889
 20
4355.34587352803
 10
2033.97617808473
 20
4358.54588898558
 10
2059.57630253984
 20
4358.54588898558
 10
2069.1763492105
 20
4357.4792171664
  0
LWPOLYLINE
  5
4D6
330
22
100
AcDbEntity
  8
PIPE
 62
     0
100
AcDbPolyline
 90
        8
 70
     0
 43
0.0
 10
1927.30899285514
 20
4257.212066163289
 10
1947.04242212261
 20
4260.41208162084
 10
1976.37589806075
 20
4255.078722524929
 10
2012.64274103881
 20
4241.21198887556
 10
2047.84291216458
 20
4231.611942502929
 10
2062.24298217058
 20
4240.678652965971
 10
2064.90966180132
 20
4275.878822998978
 10
2064.90966180132
 20
4295.078915744249
  0
LWPOLYLINE
  5
4E0
330
22
100
AcDbEntity
  8
PIPE
 62
     0
100
AcDbPolyline
 90
        2
 70
     0
 43
0.0
 10
1887.84213432018
 20
4216.14520112479
 10
1927.30899285514
 20
4257.212066163289
  0
LWPOLYLINE
  5
4E4
330
22
100
AcDbEntity
  8
PIPE
 62
     0
100
AcDbPolyline
 90
        2
 70
     0
 43
0.0
 10
1887.84213432018
 20
4216.14520112479
 10
1958.23275754468
 20
4159.07220779846
  0
LWPOLYLINE
  5
4E8
330
22
100
AcDbEntity
  8
PIPE
 62
     0
100
AcDbPolyline
 90
        3
 70
     0
 43
0.0
 10
1716.10797551017
 20
4349.479348404539
 10
1743.217493222
 20
4332.21607185906
 10
1887.84213432018
 20
4216.14520112479
  0
LWPOLYLINE
  5
4ED
330
22
100
AcDbEntity
  8
PIPE
 62
     0
100
AcDbPolyline
 90
        5
 70
     0
 43
0.0
 10
2042.5095529031
 20
4093.47794191886
 10
2071.84302884124
 20
4129.74478377105
 10
2088.90977847798
 20
4153.74489970264
 10
2088.37644255183
 20
4171.878320628739
 10
2077.70972402887
 20
4177.74501563424
  0
LWPOLYLINE
  5
4F4
330
22
100
AcDbEntity
  8
PIPE
 62
     0
100
AcDbPolyline
 90
        2
 70
     0
 43
0.0
 10
2042.5095529031
 20
4093.47794191886
 10
2135.31055903328
 20
4021.513207256428
  0
LWPOLYLINE
  5
4F8
330
22
100
AcDbEntity
  8
PIPE
 62
     0
100
AcDbPolyline
 90
        2
 70
     0
 43
0.0
 10
1958.23275754468
 20
4159.07220779846
 10
2042.5095529031
 20
4093.47794191886
  0
LWPOLYLINE
  5
4FC
330
22
100
AcDbEntity
  8
PIPE
 62
     0
100
AcDbPolyline
 90
       10
 70
     0
 43
0.0
 10
1777.44160701718
 20
4520.14683947365
 10
1755.57483404512
 20
4520.14683947365
 10
1719.8413269932
 20
4521.21351129283
 10
1688.37450735047
 20
4523.880190840789
 10
1686.24116364588
 20
4507.88011355306
 10
1703.30791328261
 20
4477.479966706368
 10
1723.57467847624
 20
4446.5464839501
 10
1738.50808440838
 20
4428.413063024001
 10
1758.24151367586
 20
4414.01299346505
 10
1762.50820108504
 20
4411.346313917088
  0
LWPOLYLINE
  5
508
330
22
100
AcDbEntity
  8
PIPE
 62
     0
100
AcDbPolyline
 90
        2
 70
     0
 43
0.0
 10
1762.50820108504
 20
4411.346313917088
 10
1745.4414514483
 20
4388.41286980468
  0
LWPOLYLINE
  5
50C
330
22
100
AcDbEntity
  8
PIPE
 62
     0
100
AcDbPolyline
 90
        2
 70
     0
 43
0.0
 10
1772.64158368185
 20
4426.279719385639
 10
1762.50820108504
 20
4411.346313917088
  0
LWPOLYLINE
  5
510
330
22
100
AcDbEntity
  8
PIPE
 62
     0
100
AcDbPolyline
 90
        2
 70
     0
 43
0.0
 10
1745.4414514483
 20
4388.41286980468
 10
1810.50843443836
 20
4336.67928657435
  0
LWPOLYLINE
  5
514
330
22
100
AcDbEntity
  8
PIPE
 62
     0
100
AcDbPolyline
 90
        2
 70
     0
 43
0.0
 10
1745.4414514483
 20
4388.41286980468
 10
1716.10797551017
 20
4349.479348404539
  0
LWPOLYLINE
  5
518
330
22
100
AcDbEntity
  8
PIPE
 62
     0
100
AcDbPolyline
 90
        3
 70
     0
 43
0.0
 10
1656.07972820702
 20
4363.336701020279
 10
1701.34609964338
 20
4355.980915945809
 10
1716.10797551017
 20
4349.479348404539
  0
LWPOLYLINE
  5
51D
330
22
100
AcDbEntity
  8
PIPE
 62
     0
100
AcDbPolyline
 90
        9
 70
     0
 43
0.0
 10
1879.30876891145
 20
4536.14691676138
 10
1884.64212817293
 20
4512.68013673938
 10
1885.17546409908
 20
4490.813364446149
 10
1880.90877668989
 20
4467.879920333739
 10
1867.04204261005
 20
4447.613155769277
 10
1847.84194926872
 20
4433.74642211991
 10
1825.97517629665
 20
4426.813055295229
 10
1791.30834109703
 20
4425.74638347605
 10
1772.64158368185
 20
4426.279719385639
  0
LWPOLYLINE
  5
528
330
22
100
AcDbEntity
  8
PIPE
 62
     0
100
AcDbPolyline
 90
        6
 70
     0
 43
0.0
 10
1799.30837998925
 20
4510.01345719142
 10
1825.97517629665
 20
4506.813441733878
 10
1853.1753085302
 20
4515.88015219692
 10
1858.50866779168
 20
4528.14687811752
 10
1873.44207372382
 20
4540.41360403811
 10
1879.30876891145
 20
4536.14691676138
  0
LWPOLYLINE
  5
530
330
22
100
AcDbEntity
  8
PIPE
 62
     0
100
AcDbPolyline
 90
        5
 70
     0
 43
0.0
 10
1799.30837998925
 20
4510.01345719142
 10
1792.37501294933
 20
4471.61327170087
 10
1788.108325540139
 20
4449.21316349805
 10
1777.44160701718
 20
4443.34646849255
 10
1771.57491182956
 20
4443.34646849255
  0
LWPOLYLINE
  5
537
330
22
100
AcDbEntity
  8
PIPE
 62
     0
100
AcDbPolyline
 90
        2
 70
     0
 43
0.0
 10
1777.44160701718
 20
4520.14683947365
 10
1799.30837998925
 20
4510.01345719142
  0
LWPOLYLINE
  5
53B
330
22
100
AcDbEntity
  8
PIPE
 62
     0
100
AcDbPolyline
 90
        4
 70
     0
 43
0.0
 10
1834.50855111502
 20
4583.61381271498
 10
1830.77519963198
 20
4562.81371224093
 10
1814.24178592139
 20
4537.21358858056
 10
1777.44160701718
 20
4520.14683947365
  0
LWPOLYLINE
  5
541
330
22
100
AcDbEntity
  8
PIPE
 62
     0
100
AcDbPolyline
 90
        2
 70
     0
 43
0.0
 10
1613.1741417636
 20
4583.08047680539
 10
1834.50855111502
 20
4583.61381271498
  0
LWPOLYLINE
  5
545
330
22
100
AcDbEntity
  8
PIPE
 62
     0
100
AcDbPolyline
 90
        9
 70
     0
 43
0.0
 10
1595.04072027457
 20
4450.81317122682
 10
1598.77407175761
 20
4496.68005945165
 10
1563.04056470569
 20
4546.28029904361
 10
1552.90718210888
 20
4564.413719969699
 10
1563.04056470569
 20
4574.01376634234
 10
1590.77403286539
 20
4569.21374315602
 10
1602.50742324064
 20
4564.947055879289
 10
1610.50746213286
 20
4566.547063608068
 10
1613.1741417636
 20
4583.08047680539
  0
LWPOLYLINE
  5
550
330
22
100
AcDbEntity
  8
PIPE
 62
     0
100
AcDbPolyline
 90
        3
 70
     0
 43
0.0
 10
1595.04072027457
 20
4450.81317122682
 10
1542.48644957687
 20
4469.79065761409
 10
1443.68993115895
 20
4486.75571696302
  0
LWPOLYLINE
  5
555
330
22
100
AcDbEntity
  8
PIPE
 62
     0
100
AcDbPolyline
 90
        5
 70
     0
 43
0.0
 10
1656.07972820702
 20
4363.336701020279
 10
1646.27269114721
 20
4395.94275221288
 10
1625.31585390704
 20
4430.87081557832
 10
1599.36929351446
 20
4449.831764262411
 10
1595.04072027457
 20
4450.81317122682
  0
LWPOLYLINE
  5
55C
330
22
100
AcDbEntity
  8
PIPE
 62
     0
100
AcDbPolyline
 90
        8
 70
     0
 43
0.0
 10
738.952145567599
 20
5599.84801999429
 10
762.4188945288119
 20
5600.381306566899
 10
796.0190578761349
 20
5625.448094317679
 10
824.2858619619777
 20
5649.981546158858
 10
852.019330121673
 20
5663.31494389863
 10
895.752876065808
 20
5674.514998000049
 10
908.0196023672121
 20
5667.048295265772
 10
924.0196801516507
 20
5670.78164663291
  0
LWPOLYLINE
  5
566
330
22
100
AcDbEntity
  8
PIPE
 62
     0
100
AcDbPolyline
 90
        2
 70
     0
 43
0.0
 10
622.684913667337
 20
5595.581332717571
 10
333.083482435636
 20
5590.78109590717
  0
LWPOLYLINE
  5
56A
330
22
100
AcDbEntity
  8
PIPE
 62
     0
100
AcDbPolyline
 90
        2
 70
     0
 43
0.0
 10
470.150838789014
 20
5502.247548539151
 10
153.882611249912
 20
5496.38063990957
  0
LWPOLYLINE
  5
56E
330
22
100
AcDbEntity
  8
PIPE
 62
     0
100
AcDbPolyline
 90
        2
 70
     0
 43
0.0
 10
470.150838789014
 20
5502.247548539151
 10
475.484198050493
 20
5470.247393963689
  0
LWPOLYLINE
  5
572
330
22
100
AcDbEntity
  8
PIPE
 62
     0
100
AcDbPolyline
 90
        2
 70
     0
 43
0.0
 10
625.351560491521
 20
5503.84749726698
 10
470.150838789014
 20
5502.247548539151
  0
LWPOLYLINE
  5
576
330
22
100
AcDbEntity
  8
PIPE
 62
     0
100
AcDbPolyline
 90
        2
 70
     0
 43
0.0
 10
622.684913667337
 20
5595.581332717571
 10
738.952145567599
 20
5599.84801999429
  0
LWPOLYLINE
  5
57A
330
22
100
AcDbEntity
  8
PIPE
 62
     0
100
AcDbPolyline
 90
        2
 70
     0
 43
0.0
 10
625.351560491521
 20
5503.84749726698
 10
622.684913667337
 20
5595.581332717571
  0
LWPOLYLINE
  5
57E
330
22
100
AcDbEntity
  8
PIPE
 62
     0
100
AcDbPolyline
 90
       10
 70
     0
 43
0.0
 10
667.8851038443317
 20
4822.51084946659
 10
669.218443659702
 20
4909.84460576693
 10
668.551773752017
 20
4985.17830394967
 10
662.5517445828521
 20
5031.845196629241
 10
629.8849191062877
 20
5035.84521600177
 10
626.41823901957
 20
5291.579829663951
 10
623.751552713077
 20
5371.58019168842
 10
617.351521599302
 20
5388.11360488574
 10
624.818224565373
 20
5419.58042355161
 10
625.351560491521
 20
5503.84749726698
  0
LWPOLYLINE
  5
58A
330
22
100
AcDbEntity
  8
PIPE
 62
     0
100
AcDbPolyline
 90
        2
 70
     0
 43
0.0
 10
665.885094121277
 20
4693.84355965006
 10
667.8851038443317
 20
4822.51084946659
  0
LWPOLYLINE
  5
58E
330
22
100
AcDbEntity
  8
PIPE
 62
     0
100
AcDbPolyline
 90
        3
 70
     0
 43
0.0
 10
665.885094121277
 20
4693.84355965006
 10
705.1452242607159
 20
4693.55114177594
 10
705.943579982856
 20
4683.97087316191
  0
LWPOLYLINE
  5
593
330
22
100
AcDbEntity
  8
PIPE
 62
     0
100
AcDbPolyline
 90
        2
 70
     0
 43
0.0
 10
628.503074935321
 20
4695.14785321161
 10
665.885094121277
 20
4693.84355965006
  0
LWPOLYLINE
  5
597
330
22
100
AcDbEntity
  8
PIPE
 62
     0
100
AcDbPolyline
 90
        5
 70
     0
 43
0.0
 10
925.4855702469839
 20
5006.82602931099
 10
912.652112407925
 20
5033.59302686684
 10
874.318594231846
 20
5076.09323337209
 10
834.318401352459
 20
5136.926862291359
 10
812.6516302094568
 20
5179.427068796599
  0
LWPOLYLINE
  5
59E
330
22
100
AcDbEntity
  8
PIPE
 62
     0
100
AcDbPolyline
 90
        7
 70
     0
 43
0.0
 10
925.4855702469839
 20
5006.82602931099
 10
970.1523896720447
 20
5032.75968948439
 10
997.6525222766239
 20
5047.759762368588
 10
1013.48593195805
 20
5072.75988384226
 10
1043.48607661759
 20
5139.42687443872
 10
1062.65283570563
 20
5172.76036973696
 10
1087.65295625525
 20
5234.42733603868
  0
LWPOLYLINE
  5
5A7
330
22
100
AcDbEntity
  8
PIPE
 62
     0
100
AcDbPolyline
 90
        3
 70
     0
 43
0.0
 10
911.4855021855992
 20
4912.825574056419
 10
916.152191539394
 20
4968.15917537649
 10
925.4855702469839
 20
5006.82602931099
  0
LWPOLYLINE
  5
5AC
330
22
100
AcDbEntity
  8
PIPE
 62
     0
100
AcDbPolyline
 90
        4
 70
     0
 43
0.0
 10
898.999662291591
 20
4620.78920938492
 10
902.8187933856948
 20
4760.158168004679
 10
901.485453570325
 20
4816.158439220171
 10
911.4855021855992
 20
4912.825574056419
  0
LWPOLYLINE
  5
5B2
330
22
100
AcDbEntity
  8
PIPE
 62
     0
100
AcDbPolyline
 90
        2
 70
     0
 43
0.0
 10
2759.469581973461
 20
863.6081430888749
 10
2760.52153779026
 20
606.9309311140361
  0
LWPOLYLINE
  5
5B6
330
22
100
AcDbEntity
  8
PIPE
 62
     0
100
AcDbPolyline
 90
        2
 70
     0
 43
0.0
 10
2759.469581973461
 20
863.6081430888749
 10
2607.98794435445
 20
863.6081430888749
  0
LWPOLYLINE
  5
5BA
330
22
100
AcDbEntity
  8
PIPE
 62
     0
100
AcDbPolyline
 90
        2
 70
     0
 43
0.0
 10
2755.62141895541
 20
1307.57650422212
 10
2759.469581973461
 20
863.6081430888749
  0
LWPOLYLINE
  5
5BE
330
22
100
AcDbEntity
  8
PIPE
 62
     0
100
AcDbPolyline
 90
        2
 70
     0
 43
0.0
 10
2429.52428045003
 20
3089.88027987399
 10
2428.80853518266
 20
3134.09213282995
  0
LWPOLYLINE
  5
5C2
330
22
100
AcDbEntity
  8
PIPE
 62
     0
100
AcDbPolyline
 90
        2
 70
     0
 43
0.0
 10
2750.16039086356
 20
3092.40497365405
 10
2429.52428045003
 20
3089.88027987399
  0
LWPOLYLINE
  5
5C6
330
22
100
AcDbEntity
  8
PIPE
 62
     0
100
AcDbPolyline
 90
        2
 70
     0
 43
0.0
 10
2750.16039086356
 20
3092.40497365405
 10
2814.96091357897
 20
2781.026061673
  0
LWPOLYLINE
  5
5CA
330
22
100
AcDbEntity
  8
PIPE
 62
     0
100
AcDbPolyline
 90
        2
 70
     0
 43
0.0
 10
2741.16520452416
 20
3138.08391150028
 10
2750.16039086356
 20
3092.40497365405
  0
LWPOLYLINE
  5
5CE
330
22
100
AcDbEntity
  8
PIPE
 62
     0
100
AcDbPolyline
 90
        2
 70
     0
 43
0.0
 10
2953.81907163207
 20
2776.81823870623
 10
2950.45281325503
 20
2686.77082721732
  0
LWPOLYLINE
  5
5D2
330
22
100
AcDbEntity
  8
PIPE
 62
     0
100
AcDbPolyline
 90
        2
 70
     0
 43
0.0
 10
2814.96091357897
 20
2781.026061673
 10
2953.81907163207
 20
2776.81823870623
  0
LWPOLYLINE
  5
5D6
330
22
100
AcDbEntity
  8
PIPE
 62
     0
100
AcDbPolyline
 90
        2
 70
     0
 43
0.0
 10
2814.96091357897
 20
2781.026061673
 10
2836.96796875669
 20
2677.03342749079
  0
LWPOLYLINE
  5
5DA
330
22
100
AcDbEntity
  8
PIPE
 62
     0
100
AcDbPolyline
 90
        2
 70
     0
 43
0.0
 10
2098.78931805848
 20
2515.93320613868
 10
2242.69686367715
 20
2514.25007695197
  0
LWPOLYLINE
  5
5DE
330
22
100
AcDbEntity
  8
PIPE
 62
     0
100
AcDbPolyline
 90
        2
 70
     0
 43
0.0
 10
2242.69686367715
 20
2514.25007695197
 10
2245.18680287966
 20
2627.13619411159
  0
LWPOLYLINE
  5
5E2
330
22
100
AcDbEntity
  8
PIPE
 62
     0
100
AcDbPolyline
 90
        2
 70
     0
 43
0.0
 10
2242.69701295676
 20
2494.89412441118
 10
2242.69686367715
 20
2514.25007695197
  0
LWPOLYLINE
  5
5E6
330
22
100
AcDbEntity
  8
PIPE
 62
     0
100
AcDbPolyline
 90
        2
 70
     0
 43
0.0
 10
2097.10618886996
 20
2627.01973246144
 10
2098.78931805848
 20
2515.93320613868
  0
LWPOLYLINE
  5
5EA
330
22
100
AcDbEntity
  8
PIPE
 62
     0
100
AcDbPolyline
 90
        2
 70
     0
 43
0.0
 10
1740.34644294929
 20
2630.59933694413
 10
2097.10618886996
 20
2627.01973246144
  0
LWPOLYLINE
  5
5EE
330
22
100
AcDbEntity
  8
PIPE
 62
     0
100
AcDbPolyline
 90
        2
 70
     0
 43
0.0
 10
2242.69701295676
 20
2494.89412441118
 10
2242.69701295676
 20
2464.59779905043
  0
LWPOLYLINE
  5
5F2
330
22
100
AcDbEntity
  8
PIPE
 62
     0
100
AcDbPolyline
 90
        2
 70
     0
 43
0.0
 10
2313.3884388747
 20
2494.89412441118
 10
2242.69701295676
 20
2494.89412441118
  0
LWPOLYLINE
  5
5F6
330
22
100
AcDbEntity
  8
PIPE
 62
     0
100
AcDbPolyline
 90
        2
 70
     0
 43
0.0
 10
2315.04292701355
 20
2628.13413877917
 10
2313.3884388747
 20
2494.89412441118
  0
LWPOLYLINE
  5
5FA
330
22
100
AcDbEntity
  8
PIPE
 62
     0
100
AcDbPolyline
 90
        3
 70
     0
 43
0.0
 10
2397.54489830082
 20
2529.39827273871
 10
2378.18891263281
 20
2569.79337321972
 10
2374.91960484259
 20
2628.13413877917
  0
LWPOLYLINE
  5
5FF
330
22
100
AcDbEntity
  8
PIPE
 62
     0
100
AcDbPolyline
 90
        4
 70
     0
 43
0.0
 10
2397.54489830082
 20
2529.39827273871
 10
2437.93999882536
 20
2538.65548326561
 10
2482.54292232121
 20
2525.19044977194
 10
2611.30230524317
 20
2457.8652823036
  0
LWPOLYLINE
  5
605
330
22
100
AcDbEntity
  8
PIPE
 62
     0
100
AcDbPolyline
 90
        2
 70
     0
 43
0.0
 10
2430.36591747701
 20
2492.36943063112
 10
2397.54489830082
 20
2529.39827273871
  0
LWPOLYLINE
  5
609
330
22
100
AcDbEntity
  8
PIPE
 62
     0
100
AcDbPolyline
 90
        2
 70
     0
 43
0.0
 10
2433.73217585405
 20
2324.05651196026
 10
2430.36591747701
 20
2492.36943063112
  0
LWPOLYLINE
  5
60D
330
22
100
AcDbEntity
  8
PIPE
 62
     0
100
AcDbPolyline
 90
        2
 70
     0
 43
0.0
 10
2750.16043400216
 20
2175.09957171335
 10
2661.79615160473
 20
2173.41644252664
  0
LWPOLYLINE
  5
611
330
22
100
AcDbEntity
  8
PIPE
 62
     0
100
AcDbPolyline
 90
        2
 70
     0
 43
0.0
 10
2750.16043400216
 20
2175.09957171335
 10
2751.00199859642
 20
2106.0912750583
  0
LWPOLYLINE
  5
615
330
22
100
AcDbEntity
  8
PIPE
 62
     0
100
AcDbPolyline
 90
        2
 70
     0
 43
0.0
 10
2851.98974990777
 20
2174.25800711999
 10
2750.16043400216
 20
2175.09957171335
  0
LWPOLYLINE
  5
619
330
22
100
AcDbEntity
  8
PIPE
 62
     0
100
AcDbPolyline
 90
        2
 70
     0
 43
0.0
 10
2851.98974990777
 20
2174.25800711999
 10
2993.59807290047
 20
2175.54144795384
  0
LWPOLYLINE
  5
61D
330
22
100
AcDbEntity
  8
PIPE
 62
     0
100
AcDbPolyline
 90
        2
 70
     0
 43
0.0
 10
2851.98974990777
 20
2104.40814587159
 10
2851.98974990777
 20
2174.25800711999
  0
LWPOLYLINE
  5
621
330
22
100
AcDbEntity
  8
PIPE
 62
     0
100
AcDbPolyline
 90
        2
 70
     0
 43
0.0
 10
2851.98974990777
 20
2104.40814587159
 10
3011.497803461211
 20
2102.72492821888
  0
LWPOLYLINE
  5
625
330
22
100
AcDbEntity
  8
PIPE
 62
     0
100
AcDbPolyline
 90
        2
 70
     0
 43
0.0
 10
2751.00199859642
 20
2106.0912750583
 10
2851.98974990777
 20
2104.40814587159
  0
LWPOLYLINE
  5
629
330
22
100
AcDbEntity
  8
PIPE
 62
     0
100
AcDbPolyline
 90
        5
 70
     0
 43
0.0
 10
2755.77447413003
 20
1959.27038043084
 10
2759.417644539031
 20
1987.43066739534
 10
2758.57607994477
 20
2025.30107409629
 10
2748.47730481364
 20
2064.85460998394
 10
2751.00199859642
 20
2106.0912750583
  0
LWPOLYLINE
  5
630
330
22
100
AcDbEntity
  8
PIPE
 62
     0
100
AcDbPolyline
 90
        2
 70
     0
 43
0.0
 10
2915.78032755312
 20
1451.18579639342
 10
2795.26827087551
 20
1452.53229978896
  0
LWPOLYLINE
  5
634
330
22
100
AcDbEntity
  8
PIPE
 62
     0
100
AcDbPolyline
 90
        2
 70
     0
 43
0.0
 10
2915.107075839831
 20
1309.12968816413
 10
2915.78032755312
 20
1451.18579639342
  0
LWPOLYLINE
  5
638
330
22
100
AcDbEntity
  8
PIPE
 62
     0
100
AcDbPolyline
 90
        2
 70
     0
 43
0.0
 10
2915.107075839831
 20
1309.12968816413
 10
3044.27807478701
 20
1310.94276259554
  0
LWPOLYLINE
  5
63C
330
22
100
AcDbEntity
  8
PIPE
 62
     0
100
AcDbPolyline
 90
        2
 70
     0
 43
0.0
 10
2755.62141895541
 20
1307.57650422212
 10
2915.107075839831
 20
1309.12968816413
  0
LWPOLYLINE
  5
640
330
22
100
AcDbEntity
  8
PIPE
 62
     0
100
AcDbPolyline
 90
        2
 70
     0
 43
0.0
 10
2202.67301078839
 20
1881.759027406789
 10
2203.16259659972
 20
1963.01267298183
  0
LWPOLYLINE
  5
644
330
22
100
AcDbEntity
  8
PIPE
 62
     0
100
AcDbPolyline
 90
        2
 70
     0
 43
0.0
 10
2202.67301078839
 20
1881.759027406789
 10
2201.3803675687
 20
1814.11069607266
  0
LWPOLYLINE
  5
648
330
22
100
AcDbEntity
  8
PIPE
 62
     0
100
AcDbPolyline
 90
        3
 70
     0
 43
0.0
 10
2122.52913116737
 20
1855.04439974618
 10
2122.9600122406
 20
1881.32814631549
 10
2202.67301078839
 20
1881.759027406789
  0
LWPOLYLINE
  5
64D
330
22
100
AcDbEntity
  8
PIPE
 62
     0
100
AcDbPolyline
 90
        4
 70
     0
 43
0.0
 10
2201.3803675687
 20
1814.11069607266
 10
2127.69970404614
 20
1814.11069607266
 10
2127.26882297291
 20
1835.65475063767
 10
2122.52913116737
 20
1855.04439974618
  0
LWPOLYLINE
  5
653
330
22
100
AcDbEntity
  8
PIPE
 62
     0
100
AcDbPolyline
 90
        2
 70
     0
 43
0.0
 10
2203.10389186162
 20
1767.57553821224
 10
2201.3803675687
 20
1814.11069607266
  0
LWPOLYLINE
  5
657
330
22
100
AcDbEntity
  8
PIPE
 62
     0
100
AcDbPolyline
 90
        2
 70
     0
 43
0.0
 10
2203.10389186162
 20
1767.57553821224
 10
2128.13058511937
 20
1767.57553821224
  0
LWPOLYLINE
  5
65B
330
22
100
AcDbEntity
  8
PIPE
 62
     0
100
AcDbPolyline
 90
        2
 70
     0
 43
0.0
 10
2205.689096116969
 20
1706.39031106639
 10
2203.10389186162
 20
1767.57553821224
  0
LWPOLYLINE
  5
65F
330
22
100
AcDbEntity
  8
PIPE
 62
     0
100
AcDbPolyline
 90
        5
 70
     0
 43
0.0
 10
2041.95428828907
 20
1672.78158594497
 10
2028.16606764677
 20
1672.35086901631
 10
2010.49994364429
 20
1676.22879883801
 10
1949.74571231867
 20
1759.38884945894
 10
1952.33110289014
 20
1771.88439167644
  0
LWPOLYLINE
  5
666
330
22
100
AcDbEntity
  8
PIPE
 62
     0
100
AcDbPolyline
 90
        2
 70
     0
 43
0.0
 10
2047.12483486895
 20
1760.25061164155
 10
2047.98662331431
 20
1714.57705180109
  0
LWPOLYLINE
  5
66A
330
22
100
AcDbEntity
  8
PIPE
 62
     0
100
AcDbPolyline
 90
        4
 70
     0
 43
0.0
 10
2047.12483486895
 20
1760.25061164155
 10
2044.97042950279
 20
1779.20937965875
 10
2037.21457018463
 20
1793.42845567166
 10
2035.49104589171
 20
1933.03392925292
  0
LWPOLYLINE
  5
670
330
22
100
AcDbEntity
  8
PIPE
 62
     0
100
AcDbPolyline
 90
        3
 70
     0
 43
0.0
 10
2079.4409153613
 20
1763.69766037195
 10
2061.77479135882
 20
1759.81973055025
 10
2047.12483486895
 20
1760.25061164155
  0
LWPOLYLINE
  5
675
330
22
100
AcDbEntity
  8
PIPE
 62
     0
100
AcDbPolyline
 90
        2
 70
     0
 43
0.0
 10
2079.01003428807
 20
1931.74128597902
 10
2079.4409153613
 20
1763.69766037195
  0
LWPOLYLINE
  5
679
330
22
100
AcDbEntity
  8
PIPE
 62
     0
100
AcDbPolyline
 90
        2
 70
     0
 43
0.0
 10
2035.49104589171
 20
1933.03392925292
 10
2079.01003428807
 20
1931.74128597902
  0
LWPOLYLINE
  5
67D
330
22
100
AcDbEntity
  8
PIPE
 62
     0
100
AcDbPolyline
 90
        2
 70
     0
 43
0.0
 10
1994.1264628615
 20
1934.32657252682
 10
2035.49104589171
 20
1933.03392925292
  0
LWPOLYLINE
  5
681
330
22
100
AcDbEntity
  8
PIPE
 62
     0
100
AcDbPolyline
 90
        2
 70
     0
 43
0.0
 10
1994.12652326677
 20
1768.0064184817
 10
1994.1264628615
 20
1934.32657252682
  0
LWPOLYLINE
  5
685
330
22
100
AcDbEntity
  8
PIPE
 62
     0
100
AcDbPolyline
 90
        2
 70
     0
 43
0.0
 10
1907.51942754728
 20
1887.36048077185
 10
1951.46929701687
 20
1888.22224295445
  0
LWPOLYLINE
  5
689
330
22
100
AcDbEntity
  8
PIPE
 62
     0
100
AcDbPolyline
 90
        2
 70
     0
 43
0.0
 10
1951.46929701687
 20
1888.22224295445
 10
1951.08555668777
 20
1960.63061712798
  0
LWPOLYLINE
  5
68D
330
22
100
AcDbEntity
  8
PIPE
 62
     0
100
AcDbPolyline
 90
        2
 70
     0
 43
0.0
 10
1952.33110289014
 20
1771.88439167644
 10
1951.46929701687
 20
1888.22224295445
  0
LWPOLYLINE
  5
691
330
22
100
AcDbEntity
  8
PIPE
 62
     0
100
AcDbPolyline
 90
        2
 70
     0
 43
0.0
 10
1907.51942754728
 20
1887.36048077185
 10
1906.22678432758
 20
1850.30470692004
  0
LWPOLYLINE
  5
695
330
22
100
AcDbEntity
  8
PIPE
 62
     0
100
AcDbPolyline
 90
        2
 70
     0
 43
0.0
 10
1885.54449281248
 20
1886.92959968055
 10
1907.51942754728
 20
1887.36048077185
  0
LWPOLYLINE
  5
699
330
22
100
AcDbEntity
  8
PIPE
 62
     0
100
AcDbPolyline
 90
        4
 70
     0
 43
0.0
 10
1906.22678432758
 20
1850.30470692004
 10
1894.16211427711
 20
1857.19880438084
 10
1885.54449281248
 20
1873.14140475895
 10
1885.54449281248
 20
1886.92959968055
  0
LWPOLYLINE
  5
69F
330
22
100
AcDbEntity
  8
PIPE
 62
     0
100
AcDbPolyline
 90
        3
 70
     0
 43
0.0
 10
1914.41352471898
 20
1772.746110486
 10
1902.3488546685
 20
1785.67254322501
 10
1906.22678432758
 20
1850.30470692004
  0
LWPOLYLINE
  5
6A4
330
22
100
AcDbEntity
  8
PIPE
 62
     0
100
AcDbPolyline
 90
        2
 70
     0
 43
0.0
 10
1952.33110289014
 20
1771.88439167644
 10
1914.41352471898
 20
1772.746110486
  0
LWPOLYLINE
  5
6A8
330
22
100
AcDbEntity
  8
PIPE
 62
     0
100
AcDbPolyline
 90
        2
 70
     0
 43
0.0
 10
1994.12652326677
 20
1768.0064184817
 10
1952.33110289014
 20
1771.88439167644
  0
LWPOLYLINE
  5
6AC
330
22
100
AcDbEntity
  8
PIPE
 62
     0
100
AcDbPolyline
 90
        4
 70
     0
 43
0.0
 10
2041.95428828907
 20
1672.78158594497
 10
2066.94539053649
 20
1659.42427211467
 10
2090.21296849098
 20
1637.88021754966
 10
2104.86292189894
 20
1631.84798602881
  0
LWPOLYLINE
  5
6B2
330
22
100
AcDbEntity
  8
PIPE
 62
     0
100
AcDbPolyline
 90
        2
 70
     0
 43
0.0
 10
2047.98662331431
 20
1714.57705180109
 10
2041.95428828907
 20
1672.78158594497
  0
LWPOLYLINE
  5
6B6
330
22
100
AcDbEntity
  8
PIPE
 62
     0
100
AcDbPolyline
 90
        4
 70
     0
 43
0.0
 10
2205.689096116969
 20
1706.39031106639
 10
2104.00116283438
 20
1703.80502451859
 10
2067.80715268295
 20
1712.85352743589
 10
2047.98662331431
 20
1714.57705180109
  0
LWPOLYLINE
  5
6BC
330
22
100
AcDbEntity
  8
PIPE
 62
     0
100
AcDbPolyline
 90
        2
 70
     0
 43
0.0
 10
2205.25821196184
 20
1681.39931152834
 10
2205.689096116969
 20
1706.39031106639
  0
LWPOLYLINE
  5
6C0
330
22
100
AcDbEntity
  8
PIPE
 62
     0
100
AcDbPolyline
 90
        2
 70
     0
 43
0.0
 10
2203.96556874214
 20
1632.70974821141
 10
2104.86292189894
 20
1631.84798602881
  0
LWPOLYLINE
  5
6C4
330
22
100
AcDbEntity
  8
PIPE
 62
     0
100
AcDbPolyline
 90
        2
 70
     0
 43
0.0
 10
2203.96556874214
 20
1632.70974821141
 10
2203.55496305639
 20
1517.96770372508
  0
LWPOLYLINE
  5
6C8
330
22
100
AcDbEntity
  8
PIPE
 62
     0
100
AcDbPolyline
 90
        2
 70
     0
 43
0.0
 10
2205.25821196184
 20
1681.39931152834
 10
2203.96556874214
 20
1632.70974821141
  0
LWPOLYLINE
  5
6CC
330
22
100
AcDbEntity
  8
PIPE
 62
     0
100
AcDbPolyline
 90
        2
 70
     0
 43
0.0
 10
2345.294560762011
 20
1681.83019261964
 10
2344.86367968878
 20
1586.60547144229
  0
LWPOLYLINE
  5
6D0
330
22
100
AcDbEntity
  8
PIPE
 62
     0
100
AcDbPolyline
 90
        2
 70
     0
 43
0.0
 10
2345.294560762011
 20
1681.83019261964
 10
2205.25821196184
 20
1681.39931152834
  0
LWPOLYLINE
  5
6D4
330
22
100
AcDbEntity
  8
PIPE
 62
     0
100
AcDbPolyline
 90
        2
 70
     0
 43
0.0
 10
2412.94288925933
 20
1682.26107371094
 10
2345.294560762011
 20
1681.83019261964
  0
LWPOLYLINE
  5
6D8
330
22
100
AcDbEntity
  8
PIPE
 62
     0
100
AcDbPolyline
 90
        2
 70
     0
 43
0.0
 10
2412.94288925933
 20
1682.26107371094
 10
2414.78773436194
 20
1785.75338581498
  0
LWPOLYLINE
  5
6DC
330
22
100
AcDbEntity
  8
PIPE
 62
     0
100
AcDbPolyline
 90
        2
 70
     0
 43
0.0
 10
2412.2629551455
 20
1517.96763761267
 10
2412.94288925933
 20
1682.26107371094
  0
LWPOLYLINE
  5
6E0
330
22
100
AcDbEntity
  8
PIPE
 62
     0
100
AcDbPolyline
 90
        2
 70
     0
 43
0.0
 10
2621.81253911655
 20
1516.28450842596
 10
2622.65413099848
 20
1307.5765553865
  0
LWPOLYLINE
  5
6E4
330
22
100
AcDbEntity
  8
PIPE
 62
     0
100
AcDbPolyline
 90
        2
 70
     0
 43
0.0
 10
2622.65413099848
 20
1307.5765553865
 10
2536.81454238384
 20
1305.8934261998
  0
LWPOLYLINE
  5
6E8
330
22
100
AcDbEntity
  8
PIPE
 62
     0
100
AcDbPolyline
 90
        2
 70
     0
 43
0.0
 10
2713.54318924235
 20
1309.25963340883
 10
2622.65413099848
 20
1307.5765553865
  0
LWPOLYLINE
  5
6EC
330
22
100
AcDbEntity
  8
PIPE
 62
     0
100
AcDbPolyline
 90
        2
 70
     0
 43
0.0
 10
2535.9729505019
 20
1515.44294383261
 10
2536.81454238384
 20
1305.8934261998
  0
LWPOLYLINE
  5
6F0
330
22
100
AcDbEntity
  8
PIPE
 62
     0
100
AcDbPolyline
 90
        2
 70
     0
 43
0.0
 10
2536.81454238384
 20
1305.8934261998
 10
2467.80624565442
 20
1306.73499079315
  0
LWPOLYLINE
  5
6F4
330
22
100
AcDbEntity
  8
PIPE
 62
     0
100
AcDbPolyline
 90
        2
 70
     0
 43
0.0
 10
2467.80624565442
 20
1306.73499079315
 10
2467.80624565442
 20
1514.60144535166
  0
LWPOLYLINE
  5
6F8
330
22
100
AcDbEntity
  8
PIPE
 62
     0
100
AcDbPolyline
 90
        2
 70
     0
 43
0.0
 10
2467.80624565442
 20
1514.60144535166
 10
2412.2629551455
 20
1517.96763761267
  0
LWPOLYLINE
  5
6FC
330
22
100
AcDbEntity
  8
PIPE
 62
     0
100
AcDbPolyline
 90
        2
 70
     0
 43
0.0
 10
2535.9729505019
 20
1515.44294383261
 10
2467.80624565442
 20
1514.60144535166
  0
LWPOLYLINE
  5
700
330
22
100
AcDbEntity
  8
PIPE
 62
     0
100
AcDbPolyline
 90
        2
 70
     0
 43
0.0
 10
2467.80624565442
 20
1306.73499079315
 10
2289.39455167104
 20
1305.05186160644
  0
LWPOLYLINE
  5
704
330
22
100
AcDbEntity
  8
PIPE
 62
     0
100
AcDbPolyline
 90
        2
 70
     0
 43
0.0
 10
2412.2629551455
 20
1517.96763761267
 10
2406.37203027335
 20
1372.37702907478
  0
LWPOLYLINE
  5
708
330
22
100
AcDbEntity
  8
PIPE
 62
     0
100
AcDbPolyline
 90
        4
 70
     0
 43
0.0
 10
2215.33686737605
 20
1375.7432874482
 10
2209.44591521622
 20
1405.1980482156
 10
2201.87183386787
 20
1424.55403386275
 10
2203.55496305639
 20
1517.96770372508
  0
LWPOLYLINE
  5
70E
330
22
100
AcDbEntity
  8
PIPE
 62
     0
100
AcDbPolyline
 90
        2
 70
     0
 43
0.0
 10
2289.39455167104
 20
1376.58485204156
 10
2215.33686737605
 20
1375.7432874482
  0
LWPOLYLINE
  5
712
330
22
100
AcDbEntity
  8
PIPE
 62
     0
100
AcDbPolyline
 90
        3
 70
     0
 43
0.0
 10
2289.39455167104
 20
1376.58485204156
 10
2334.83903976114
 20
1377.42641663491
 10
2349.98720245784
 20
1386.68362716181
  0
LWPOLYLINE
  5
717
330
22
100
AcDbEntity
  8
PIPE
 62
     0
100
AcDbPolyline
 90
        2
 70
     0
 43
0.0
 10
2289.39455167104
 20
1305.05186160644
 10
2289.39455167104
 20
1376.58485204156
  0
LWPOLYLINE
  5
71B
330
22
100
AcDbEntity
  8
PIPE
 62
     0
100
AcDbPolyline
 90
        3
 70
     0
 43
0.0
 10
3083.83161071729
 20
1395.94078652432
 10
3147.79051988114
 20
1392.57452815091
 10
3146.10739069262
 20
1319.35840852908
  0
LWPOLYLINE
  5
720
330
22
100
AcDbEntity
  8
PIPE
 62
     0
100
AcDbPolyline
 90
        2
 70
     0
 43
0.0
 10
3083.83161071729
 20
1395.94078652432
 10
3082.99004612303
 20
1342.08065254965
  0
LWPOLYLINE
  5
724
330
22
100
AcDbEntity
  8
PIPE
 62
     0
100
AcDbPolyline
 90
        2
 70
     0
 43
0.0
 10
3050.16902694684
 20
1396.78235111768
 10
3083.83161071729
 20
1395.94078652432
  0
LWPOLYLINE
  5
728
330
22
100
AcDbEntity
  8
PIPE
 62
     0
100
AcDbPolyline
 90
        3
 70
     0
 43
0.0
 10
3050.16902694684
 20
1396.78235111768
 10
3050.16902694684
 20
1399.30704489774
 10
3045.119557518261
 20
1558.36283941922
  0
LWPOLYLINE
  5
72D
330
22
100
AcDbEntity
  8
PIPE
 62
     0
100
AcDbPolyline
 90
        2
 70
     0
 43
0.0
 10
3044.27807478701
 20
1310.94276259554
 10
3050.16902694684
 20
1396.78235111768
  0
LWPOLYLINE
  5
731
330
22
100
AcDbEntity
  8
PIPE
 62
     0
100
AcDbPolyline
 90
        2
 70
     0
 43
0.0
 10
2713.54318924235
 20
1309.25963340883
 10
2755.62141895541
 20
1307.57650422212
  0
LWPOLYLINE
  5
735
330
22
100
AcDbEntity
  8
PIPE
 62
     0
100
AcDbPolyline
 90
        2
 70
     0
 43
0.0
 10
2712.70151529676
 20
1517.12607301931
 10
2713.54318924235
 20
1309.25963340883
  0
LWPOLYLINE
  5
739
330
22
100
AcDbEntity
  8
PIPE
 62
     0
100
AcDbPolyline
 90
        2
 70
     0
 43
0.0
 10
2622.654103710811
 20
1733.40817351137
 10
2621.81253911655
 20
1516.28450842596
  0
LWPOLYLINE
  5
73D
330
22
100
AcDbEntity
  8
PIPE
 62
     0
100
AcDbPolyline
 90
        5
 70
     0
 43
0.0
 10
2532.60678584339
 20
1786.80534160176
 10
2535.13138590764
 20
1726.67565676453
 10
2536.81451509617
 20
1693.01307303036
 10
2536.81451509617
 20
1665.241441449669
 10
2535.9729505019
 20
1515.44294383261
  0
LWPOLYLINE
  5
744
330
22
100
AcDbEntity
  8
PIPE
 62
     0
100
AcDbPolyline
 90
        2
 70
     0
 43
0.0
 10
2621.81253911655
 20
1516.28450842596
 10
2535.9729505019
 20
1515.44294383261
  0
LWPOLYLINE
  5
748
330
22
100
AcDbEntity
  8
PIPE
 62
     0
100
AcDbPolyline
 90
        2
 70
     0
 43
0.0
 10
2712.70151529676
 20
1517.12607301931
 10
2621.81253911655
 20
1516.28450842596
  0
LWPOLYLINE
  5
74C
330
22
100
AcDbEntity
  8
PIPE
 62
     0
100
AcDbPolyline
 90
        5
 70
     0
 43
0.0
 10
2622.654103710811
 20
1733.40817351137
 10
2649.58417072717
 20
1728.35878595124
 10
2687.45457746893
 20
1692.17150843701
 10
2712.70151529676
 20
1661.87518307625
 10
2712.70151529676
 20
1517.12607301931
  0
LWPOLYLINE
  5
753
330
22
100
AcDbEntity
  8
PIPE
 62
     0
100
AcDbPolyline
 90
        3
 70
     0
 43
0.0
 10
2532.60678584339
 20
1786.80534160176
 10
2587.30839075184
 20
1777.16953236579
 10
2622.654103710811
 20
1733.40817351137
  0
LWPOLYLINE
  5
758
330
22
100
AcDbEntity
  8
PIPE
 62
     0
100
AcDbPolyline
 90
        2
 70
     0
 43
0.0
 10
2754.77977249814
 20
1844.49480115967
 10
2757.30443879261
 20
1759.49667590535
  0
LWPOLYLINE
  5
75C
330
22
100
AcDbEntity
  8
PIPE
 62
     0
100
AcDbPolyline
 90
        3
 70
     0
 43
0.0
 10
2831.36215057591
 20
1843.65323656632
 10
2832.20368768186
 20
1763.70449887212
 10
2897.00416143997
 20
1764.54606346547
  0
LWPOLYLINE
  5
761
330
22
100
AcDbEntity
  8
PIPE
 62
     0
100
AcDbPolyline
 90
        2
 70
     0
 43
0.0
 10
3045.119557518261
 20
1558.36283941922
 10
2878.48976785454
 20
1560.04596860592
  0
LWPOLYLINE
  5
765
330
22
100
AcDbEntity
  8
PIPE
 62
     0
100
AcDbPolyline
 90
        2
 70
     0
 43
0.0
 10
3040.91173454696
 20
1682.91439923565
 10
3045.119557518261
 20
1558.36283941922
  0
LWPOLYLINE
  5
769
330
22
100
AcDbEntity
  8
PIPE
 62
     0
100
AcDbPolyline
 90
        2
 70
     0
 43
0.0
 10
3040.91173454696
 20
1682.91439923565
 10
2790.12548545711
 20
1683.755963829
  0
LWPOLYLINE
  5
76D
330
22
100
AcDbEntity
  8
PIPE
 62
     0
100
AcDbPolyline
 90
        2
 70
     0
 43
0.0
 10
3040.91173454696
 20
1844.49480115967
 10
3040.91173454696
 20
1682.91439923565
  0
LWPOLYLINE
  5
771
330
22
100
AcDbEntity
  8
PIPE
 62
     0
100
AcDbPolyline
 90
        2
 70
     0
 43
0.0
 10
3040.91173454696
 20
1844.49480115967
 10
3041.43614445608
 20
1955.52808787985
  0
LWPOLYLINE
  5
775
330
22
100
AcDbEntity
  8
PIPE
 62
     0
100
AcDbPolyline
 90
        2
 70
     0
 43
0.0
 10
2831.36215057591
 20
1843.65323656632
 10
3040.91173454696
 20
1844.49480115967
  0
LWPOLYLINE
  5
779
330
22
100
AcDbEntity
  8
PIPE
 62
     0
100
AcDbPolyline
 90
        2
 70
     0
 43
0.0
 10
2754.77977249814
 20
1844.49480115967
 10
2831.36215057591
 20
1843.65323656632
  0
LWPOLYLINE
  5
77D
330
22
100
AcDbEntity
  8
PIPE
 62
     0
100
AcDbPolyline
 90
        2
 70
     0
 43
0.0
 10
2755.77447413003
 20
1959.27038043084
 10
2754.77977249814
 20
1844.49480115967
  0
LWPOLYLINE
  5
781
330
22
100
AcDbEntity
  8
PIPE
 62
     0
100
AcDbPolyline
 90
        9
 70
     0
 43
0.0
 10
2394.08517737202
 20
2073.40022555436
 10
2386.67940852591
 20
2061.95494669229
 10
2385.33290509935
 20
2015.50057954622
 10
2410.243218490811
 20
2015.50057954622
 10
2426.40125960959
 20
2008.76806256852
 10
2451.98482471434
 20
2008.76806256852
 10
2475.54863467923
 20
2023.57959991944
 10
2510.55772376993
 20
2022.90634822168
 10
2536.81454058796
 20
2022.90634822168
  0
LWPOLYLINE
  5
78C
330
22
100
AcDbEntity
  8
PIPE
 62
     0
100
AcDbPolyline
 90
        3
 70
     0
 43
0.0
 10
2536.81454058796
 20
2022.90634822168
 10
2538.16104401453
 20
2082.825749323131
 10
2497.765941217561
 20
2097.63728667405
  0
LWPOLYLINE
  5
791
330
22
100
AcDbEntity
  8
PIPE
 62
     0
100
AcDbPolyline
 90
        5
 70
     0
 43
0.0
 10
2529.98948579372
 20
1961.7652421315
 10
2528.735520028571
 20
1981.16474295999
 10
2530.75527516842
 20
2006.07505577745
 10
2537.48779230124
 20
2020.2133414306
 10
2536.81454058796
 20
2022.90634822168
  0
LWPOLYLINE
  5
798
330
22
100
AcDbEntity
  8
PIPE
 62
     0
100
AcDbPolyline
 90
        4
 70
     0
 43
0.0
 10
2394.08517737202
 20
2073.40022555436
 10
2383.3131499595
 20
2092.2512730919
 10
2379.94689139309
 20
2131.29987156251
 10
2379.94689139309
 20
2164.96245645096
  0
LWPOLYLINE
  5
79E
330
22
100
AcDbEntity
  8
PIPE
 62
     0
100
AcDbPolyline
 90
        5
 70
     0
 43
0.0
 10
2497.765941217561
 20
2097.63728667405
 10
2465.44985897999
 20
2072.72697385659
 10
2439.19304216197
 20
2065.32120518113
 10
2410.243218490811
 20
2065.9944568789
 10
2394.08517737202
 20
2073.40022555436
  0
LWPOLYLINE
  5
7A5
330
22
100
AcDbEntity
  8
PIPE
 62
     0
100
AcDbPolyline
 90
        2
 70
     0
 43
0.0
 10
2497.765941217561
 20
2097.63728667405
 10
2448.61856614792
 20
2124.56735458481
  0
LWPOLYLINE
  5
7A9
330
22
100
AcDbEntity
  8
PIPE
 62
     0
100
AcDbPolyline
 90
        2
 70
     0
 43
0.0
 10
2532.60678584339
 20
1786.80534160176
 10
2529.98948579372
 20
1961.7652421315
  0
LWPOLYLINE
  5
7AD
330
22
100
AcDbEntity
  8
PIPE
 62
     0
100
AcDbPolyline
 90
        2
 70
     0
 43
0.0
 10
2414.78773436194
 20
1785.75338581498
 10
2532.60678584339
 20
1786.80534160176
  0
LWPOLYLINE
  5
7B1
330
22
100
AcDbEntity
  8
PIPE
 62
     0
100
AcDbPolyline
 90
        2
 70
     0
 43
0.0
 10
2413.9784144386
 20
1960.51781128117
 10
2414.78773436194
 20
1785.75338581498
  0
LWPOLYLINE
  5
7B5
330
22
100
AcDbEntity
  8
PIPE
 62
     0
100
AcDbPolyline
 90
        4
 70
     0
 43
0.0
 10
1882.57282653649
 20
2331.0048294452
 10
1734.12855243692
 20
2513.12973359348
 10
1681.7364556959
 20
2569.26412185837
 10
1659.51294893676
 20
2625.60954294143
  0
LWPOLYLINE
  5
7BB
330
22
100
AcDbEntity
  8
PIPE
 62
     0
100
AcDbPolyline
 90
        5
 70
     0
 43
0.0
 10
2203.16259659972
 20
1963.01267298183
 10
2140.79101761724
 20
1990.45620730491
 10
2080.9143356275
 20
2035.36371791681
 10
2021.03765363776
 20
2122.68387743997
 10
1882.57282653649
 20
2331.0048294452
  0
LWPOLYLINE
  5
7C2
330
22
100
AcDbEntity
  8
PIPE
 62
     0
100
AcDbPolyline
 90
        2
 70
     0
 43
0.0
 10
2529.98948579372
 20
1961.7652421315
 10
2413.9784144386
 20
1960.51781128117
  0
LWPOLYLINE
  5
7C6
330
22
100
AcDbEntity
  8
PIPE
 62
     0
100
AcDbPolyline
 90
        2
 70
     0
 43
0.0
 10
2755.77447413003
 20
1959.27038043084
 10
2529.98948579372
 20
1961.7652421315
  0
LWPOLYLINE
  5
7CA
330
22
100
AcDbEntity
  8
PIPE
 62
     0
100
AcDbPolyline
 90
        2
 70
     0
 43
0.0
 10
3041.43614445608
 20
1955.52808787985
 10
2755.77447413003
 20
1959.27038043084
  0
LWPOLYLINE
  5
7CE
330
22
100
AcDbEntity
  8
PIPE
 62
     0
100
AcDbPolyline
 90
        2
 70
     0
 43
0.0
 10
2993.59807290047
 20
2175.54144795384
 10
3011.497803461211
 20
2102.72492821888
  0
LWPOLYLINE
  5
7D2
330
22
100
AcDbEntity
  8
PIPE
 62
     0
100
AcDbPolyline
 90
        2
 70
     0
 43
0.0
 10
2951.37155304281
 20
2301.31601329885
 10
2993.59807290047
 20
2175.54144795384
  0
LWPOLYLINE
  5
7D6
330
22
100
AcDbEntity
  8
PIPE
 62
     0
100
AcDbPolyline
 90
        2
 70
     0
 43
0.0
 10
2738.31044188302
 20
2299.81900257113
 10
2742.05273450738
 20
2218.73599729963
  0
LWPOLYLINE
  5
7DA
330
22
100
AcDbEntity
  8
PIPE
 62
     0
100
AcDbPolyline
 90
        2
 70
     0
 43
0.0
 10
2738.31044188302
 20
2299.81900257113
 10
2823.634640340851
 20
2300.31806863126
  0
LWPOLYLINE
  5
7DE
330
22
100
AcDbEntity
  8
PIPE
 62
     0
100
AcDbPolyline
 90
        2
 70
     0
 43
0.0
 10
2645.00255148422
 20
2301.31601329885
 10
2738.31044188302
 20
2299.81900257113
  0
LWPOLYLINE
  5
7E2
330
22
100
AcDbEntity
  8
PIPE
 62
     0
100
AcDbPolyline
 90
        2
 70
     0
 43
0.0
 10
2821.63875107989
 20
2359.19680401872
 10
2645.00255148422
 20
2361.19269335388
  0
LWPOLYLINE
  5
7E6
330
22
100
AcDbEntity
  8
PIPE
 62
     0
100
AcDbPolyline
 90
        2
 70
     0
 43
0.0
 10
2645.00255148422
 20
2361.19269335388
 10
2645.00255148422
 20
2301.31601329885
  0
LWPOLYLINE
  5
7EA
330
22
100
AcDbEntity
  8
PIPE
 62
     0
100
AcDbPolyline
 90
        4
 70
     0
 43
0.0
 10
2653.98405315857
 20
2446.01799009852
 10
2648.99433000615
 20
2433.044709419931
 10
2646.0004961147
 20
2378.15775270281
 10
2645.00255148422
 20
2361.19269335388
  0
LWPOLYLINE
  5
7F0
330
22
100
AcDbEntity
  8
PIPE
 62
     0
100
AcDbPolyline
 90
        2
 70
     0
 43
0.0
 10
2821.63875107989
 20
2359.19680401872
 10
2823.634640340851
 20
2300.31806863126
  0
LWPOLYLINE
  5
7F4
330
22
100
AcDbEntity
  8
PIPE
 62
     0
100
AcDbPolyline
 90
        2
 70
     0
 43
0.0
 10
2823.634640340851
 20
2300.31806863126
 10
2951.37155304281
 20
2301.31601329885
  0
LWPOLYLINE
  5
7F8
330
22
100
AcDbEntity
  8
PIPE
 62
     0
100
AcDbPolyline
 90
        4
 70
     0
 43
0.0
 10
2801.67985847021
 20
2473.96044079087
 10
2820.6408064494
 20
2419.07348407375
 10
2825.63052960182
 20
2389.13514404623
 10
2821.63875107989
 20
2359.19680401872
  0
LWPOLYLINE
  5
7FE
330
22
100
AcDbEntity
  8
PIPE
 62
     0
100
AcDbPolyline
 90
        2
 70
     0
 43
0.0
 10
2701.8853954218
 20
2563.77546087342
 10
2736.81345748875
 20
2549.80423552725
  0
LWPOLYLINE
  5
802
330
22
100
AcDbEntity
  8
PIPE
 62
     0
100
AcDbPolyline
 90
        4
 70
     0
 43
0.0
 10
2701.8853954218
 20
2563.77546087342
 10
2686.91622596454
 20
2527.8494528404
 10
2654.98199778906
 20
2453.00360277161
 10
2653.98405315857
 20
2446.01799009852
  0
LWPOLYLINE
  5
808
330
22
100
AcDbEntity
  8
PIPE
 62
     0
100
AcDbPolyline
 90
        3
 70
     0
 43
0.0
 10
2708.87100783519
 20
2658.580204293901
 10
2713.86073098761
 20
2593.71380090094
 10
2701.8853954218
 20
2563.77546087342
  0
LWPOLYLINE
  5
80D
330
22
100
AcDbEntity
  8
PIPE
 62
     0
100
AcDbPolyline
 90
        2
 70
     0
 43
0.0
 10
2767.74974103375
 20
2461.98510477986
 10
2757.77029472891
 20
2503.89878081839
  0
LWPOLYLINE
  5
811
330
22
100
AcDbEntity
  8
PIPE
 62
     0
100
AcDbPolyline
 90
        4
 70
     0
 43
0.0
 10
2767.74974103375
 20
2461.98510477986
 10
2685.91828133406
 20
2438.03443275785
 10
2661.96761020244
 20
2442.02621142818
 10
2653.98405315857
 20
2446.01799009852
  0
LWPOLYLINE
  5
817
330
22
100
AcDbEntity
  8
PIPE
 62
     0
100
AcDbPolyline
 90
        2
 70
     0
 43
0.0
 10
2801.67985847021
 20
2473.96044079087
 10
2767.74974103375
 20
2461.98510477986
  0
LWPOLYLINE
  5
81B
330
22
100
AcDbEntity
  8
PIPE
 62
     0
100
AcDbPolyline
 90
        2
 70
     0
 43
0.0
 10
2888.50104132232
 20
2499.90700214805
 10
2801.67985847021
 20
2473.96044079087
  0
LWPOLYLINE
  5
81F
330
22
100
AcDbEntity
  8
PIPE
 62
     0
100
AcDbPolyline
 90
        2
 70
     0
 43
0.0
 10
2888.50104132232
 20
2499.90700214805
 10
2836.96796875669
 20
2677.03342749079
  0
LWPOLYLINE
  5
823
330
22
100
AcDbEntity
  8
PIPE
 62
     0
100
AcDbPolyline
 90
        2
 70
     0
 43
0.0
 10
2951.37155304281
 20
2301.31601329885
 10
2888.50104132232
 20
2499.90700214805
  0
LWPOLYLINE
  5
827
330
22
100
AcDbEntity
  8
PIPE
 62
     0
100
AcDbPolyline
 90
        2
 70
     0
 43
0.0
 10
2708.87100783519
 20
2658.580204293901
 10
2680.2906617707
 20
2658.07247880669
  0
LWPOLYLINE
  5
82B
330
22
100
AcDbEntity
  8
PIPE
 62
     0
100
AcDbPolyline
 90
        2
 70
     0
 43
0.0
 10
2766.11389999232
 20
2662.06425747703
 10
2708.87100783519
 20
2658.580204293901
  0
LWPOLYLINE
  5
82F
330
22
100
AcDbEntity
  8
PIPE
 62
     0
100
AcDbPolyline
 90
        2
 70
     0
 43
0.0
 10
1659.51294893676
 20
2625.60954294143
 10
1740.34644294929
 20
2630.59933694413
  0
LWPOLYLINE
  5
833
330
22
100
AcDbEntity
  8
PIPE
 62
     0
100
AcDbPolyline
 90
        4
 70
     0
 43
0.0
 10
2449.68577822914
 20
2733.78653350326
 10
2436.91208644768
 20
2758.05654772022
 10
2424.13839466622
 20
2779.77182359855
 10
2413.919441241051
 20
2798.29367655359
  0
LWPOLYLINE
  5
839
330
22
100
AcDbEntity
  8
PIPE
 62
     0
100
AcDbPolyline
 90
        4
 70
     0
 43
0.0
 10
2449.68577822914
 20
2733.78653350326
 10
2438.8281402149
 20
2726.122318487381
 10
2420.94497172085
 20
2722.9288955641
 10
2400.50706487051
 20
2733.78653350326
  0
LWPOLYLINE
  5
83F
330
22
100
AcDbEntity
  8
PIPE
 62
     0
100
AcDbPolyline
 90
        5
 70
     0
 43
0.0
 10
2462.73873232518
 20
2640.10947479018
 10
2464.37552377783
 20
2664.80859836034
 10
2466.29157754504
 20
2682.69176673072
 10
2468.207631312261
 20
2710.79388845562
 10
2449.68577822914
 20
2733.78653350326
  0
LWPOLYLINE
  5
846
330
22
100
AcDbEntity
  8
PIPE
 62
     0
100
AcDbPolyline
 90
        2
 70
     0
 43
0.0
 10
2512.27686795831
 20
2751.03101728899
 10
2491.2002765189
 20
2783.60393110649
  0
LWPOLYLINE
  5
84A
330
22
100
AcDbEntity
  8
PIPE
 62
     0
100
AcDbPolyline
 90
        4
 70
     0
 43
0.0
 10
2512.27686795831
 20
2751.03101728899
 10
2535.90819775401
 20
2758.05654772022
 10
2553.15268165899
 20
2758.05654772022
 10
2567.84242720767
 20
2756.7791785509
  0
LWPOLYLINE
  5
850
330
22
100
AcDbEntity
  8
PIPE
 62
     0
100
AcDbPolyline
 90
        4
 70
     0
 43
0.0
 10
2525.05055973977
 20
2693.54940466989
 10
2523.77319056162
 20
2710.15520387096
 10
2520.57976761626
 20
2730.59311057998
 10
2512.27686795831
 20
2751.03101728899
  0
LWPOLYLINE
  5
856
330
22
100
AcDbEntity
  8
PIPE
 62
     0
100
AcDbPolyline
 90
        2
 70
     0
 43
0.0
 10
2525.05055973977
 20
2693.54940466989
 10
2556.98478919343
 20
2690.3559817466
  0
LWPOLYLINE
  5
85A
330
22
100
AcDbEntity
  8
PIPE
 62
     0
100
AcDbPolyline
 90
        2
 70
     0
 43
0.0
 10
2522.61541015422
 20
2649.09097679844
 10
2525.05055973977
 20
2693.54940466989
  0
LWPOLYLINE
  5
85E
330
22
100
AcDbEntity
  8
PIPE
 62
     0
100
AcDbPolyline
 90
        4
 70
     0
 43
0.0
 10
2642.3687658123
 20
2655.07864480394
 10
2644.48457789644
 20
2611.79777783383
 10
2640.652470362001
 20
2587.52776361687
 10
2632.98825529312
 20
2567.08985690786
  0
LWPOLYLINE
  5
864
330
22
100
AcDbEntity
  8
PIPE
 62
     0
100
AcDbPolyline
 90
        4
 70
     0
 43
0.0
 10
2573.51058630891
 20
2648.09303213085
 10
2577.42269604376
 20
2630.31963078887
 10
2574.86795768747
 20
2609.2430394952
 10
2569.119796385811
 20
2597.10803238672
  0
LWPOLYLINE
  5
86A
330
22
100
AcDbEntity
  8
PIPE
 62
     0
100
AcDbPolyline
 90
        2
 70
     0
 43
0.0
 10
2619.41603931117
 20
2654.08070013636
 10
2628.517463169611
 20
2754.22444021228
  0
LWPOLYLINE
  5
86E
330
22
100
AcDbEntity
  8
PIPE
 62
     0
100
AcDbPolyline
 90
        2
 70
     0
 43
0.0
 10
2680.2906617707
 20
2658.07247880669
 10
2688.55381454248
 20
2740.17337934983
  0
LWPOLYLINE
  5
872
330
22
100
AcDbEntity
  8
PIPE
 62
     0
100
AcDbPolyline
 90
        2
 70
     0
 43
0.0
 10
2766.11389999232
 20
2662.06425747703
 10
2746.67411214814
 20
2708.87783470165
  0
LWPOLYLINE
  5
876
330
22
100
AcDbEntity
  8
PIPE
 62
     0
100
AcDbPolyline
 90
        2
 70
     0
 43
0.0
 10
2315.04292701355
 20
2628.13413877917
 10
2245.18680287966
 20
2627.13619411159
  0
LWPOLYLINE
  5
87A
330
22
100
AcDbEntity
  8
PIPE
 62
     0
100
AcDbPolyline
 90
        2
 70
     0
 43
0.0
 10
2374.91960484259
 20
2628.13413877917
 10
2315.04292701355
 20
2628.13413877917
  0
LWPOLYLINE
  5
87E
330
22
100
AcDbEntity
  8
PIPE
 62
     0
100
AcDbPolyline
 90
        2
 70
     0
 43
0.0
 10
2462.73873232518
 20
2640.10947479018
 10
2374.91960484259
 20
2628.13413877917
  0
LWPOLYLINE
  5
882
330
22
100
AcDbEntity
  8
PIPE
 62
     0
100
AcDbPolyline
 90
        2
 70
     0
 43
0.0
 10
2522.61541015422
 20
2649.09097679844
 10
2462.73873232518
 20
2640.10947479018
  0
LWPOLYLINE
  5
886
330
22
100
AcDbEntity
  8
PIPE
 62
     0
100
AcDbPolyline
 90
        2
 70
     0
 43
0.0
 10
2573.51058630891
 20
2648.09303213085
 10
2522.61541015422
 20
2649.09097679844
  0
LWPOLYLINE
  5
88A
330
22
100
AcDbEntity
  8
PIPE
 62
     0
100
AcDbPolyline
 90
        2
 70
     0
 43
0.0
 10
2619.41603931117
 20
2654.08070013636
 10
2573.51058630891
 20
2648.09303213085
  0
LWPOLYLINE
  5
88E
330
22
100
AcDbEntity
  8
PIPE
 62
     0
100
AcDbPolyline
 90
        2
 70
     0
 43
0.0
 10
2642.3687658123
 20
2655.07864480394
 10
2619.41603931117
 20
2654.08070013636
  0
LWPOLYLINE
  5
892
330
22
100
AcDbEntity
  8
PIPE
 62
     0
100
AcDbPolyline
 90
        2
 70
     0
 43
0.0
 10
2680.2906617707
 20
2658.07247880669
 10
2642.3687658123
 20
2655.07864480394
  0
LWPOLYLINE
  5
896
330
22
100
AcDbEntity
  8
PIPE
 62
     0
100
AcDbPolyline
 90
        4
 70
     0
 43
0.0
 10
2836.96796875669
 20
2677.03342749079
 10
2815.01318688604
 20
2668.05192548253
 10
2787.07073723249
 20
2662.06425747703
 10
2766.11389999232
 20
2662.06425747703
  0
LWPOLYLINE
  5
89C
330
22
100
AcDbEntity
  8
PIPE
 62
     0
100
AcDbPolyline
 90
        7
 70
     0
 43
0.0
 10
2428.80853518266
 20
3134.09213282995
 10
2380.90715699222
 20
3136.08809425746
 10
2330.011980837531
 20
3154.05109827397
 10
2282.1106385743
 20
3189.977106307
 10
2247.18257650736
 20
3220.9133910021
 10
2199.28123424413
 20
3265.82090104338
 10
2135.3530841867
 20
3291.48338898714
  0
LWPOLYLINE
  5
8A5
330
22
100
AcDbEntity
  8
PIPE
 62
     0
100
AcDbPolyline
 90
        2
 70
     0
 43
0.0
 10
2741.16520452416
 20
3138.08391150028
 10
2428.80853518266
 20
3134.09213282995
  0
LWPOLYLINE
  5
8A9
330
22
100
AcDbEntity
  8
PIPE
 62
     0
100
AcDbPolyline
 90
        5
 70
     0
 43
0.0
 10
2580.98198286992
 20
3669.72115154039
 10
2678.0551436339
 20
3401.90059643375
 10
2713.82148062199
 20
3300.34974747333
 10
2719.56964192365
 20
3256.91919571667
 10
2741.16520452416
 20
3138.08391150028
  0
LWPOLYLINE
  5
8B0
330
22
100
AcDbEntity
  8
PIPE
 62
     0
100
AcDbPolyline
 90
        3
 70
     0
 43
0.0
 10
298.4602710155101
 20
4647.779120298189
 10
223.095489504884
 20
4638.19885152834
 10
183.497044982351
 20
4638.19885152834
  0
LWPOLYLINE
  5
8B5
330
22
100
AcDbEntity
  8
PIPE
 62
     0
100
AcDbPolyline
 90
        2
 70
     0
 43
0.0
 10
298.4602710155101
 20
4647.779120298189
 10
178.387568269767
 20
4710.370209594549
  0
LWPOLYLINE
  5
8B9
330
22
100
AcDbEntity
  8
PIPE
 62
     0
100
AcDbPolyline
 90
        5
 70
     0
 43
0.0
 10
628.503074935321
 20
4549.048756847628
 10
442.164303556959
 20
4593.490930602371
 10
380.211898416868
 20
4612.01278355741
 10
327.839762112873
 20
4634.366744020399
 10
298.4602710155101
 20
4647.779120298189
  0
LWPOLYLINE
  5
8C0
330
22
100
AcDbEntity
  8
PIPE
 62
     0
100
AcDbPolyline
 90
        2
 70
     0
 43
0.0
 10
899.6785985423199
 20
4342.627724298719
 10
901.2629808634081
 20
4415.39305692087
  0
LWPOLYLINE
  5
8C4
330
22
100
AcDbEntity
  8
PIPE
 62
     0
100
AcDbPolyline
 90
        2
 70
     0
 43
0.0
 10
901.2629808634081
 20
4415.39305692087
 10
784.499261836305
 20
4417.37405224667
  0
LWPOLYLINE
  5
8C8
330
22
100
AcDbEntity
  8
PIPE
 62
     0
100
AcDbPolyline
 90
        2
 70
     0
 43
0.0
 10
784.499261836305
 20
4343.126970487928
 10
717.437381176584
 20
4343.126970487928
  0
LWPOLYLINE
  5
8CC
330
22
100
AcDbEntity
  8
PIPE
 62
     0
100
AcDbPolyline
 90
        2
 70
     0
 43
0.0
 10
784.499261836305
 20
4343.126970487928
 10
784.499261836305
 20
4288.04042595725
  0
LWPOLYLINE
  5
8D0
330
22
100
AcDbEntity
  8
PIPE
 62
     0
100
AcDbPolyline
 90
        2
 70
     0
 43
0.0
 10
784.499261836305
 20
4417.37405224667
 10
784.499261836305
 20
4343.126970487928
  0
LWPOLYLINE
  5
8D4
330
22
100
AcDbEntity
  8
PIPE
 62
     0
100
AcDbPolyline
 90
        2
 70
     0
 43
0.0
 10
716.639025454445
 20
4418.1724079645
 10
717.437381176584
 20
4521.16029556534
  0
LWPOLYLINE
  5
8D8
330
22
100
AcDbEntity
  8
PIPE
 62
     0
100
AcDbPolyline
 90
        2
 70
     0
 43
0.0
 10
717.437381176584
 20
4521.16029556534
 10
785.608648974799
 20
4507.15447213142
  0
LWPOLYLINE
  5
8DC
330
22
100
AcDbEntity
  8
PIPE
 62
     0
100
AcDbPolyline
 90
        2
 70
     0
 43
0.0
 10
709.935358593553
 20
4524.29972959472
 10
717.437381176584
 20
4521.16029556534
  0
LWPOLYLINE
  5
8E0
330
22
100
AcDbEntity
  8
PIPE
 62
     0
100
AcDbPolyline
 90
        2
 70
     0
 43
0.0
 10
784.499261836305
 20
4417.37405224667
 10
716.639025454445
 20
4418.1724079645
  0
LWPOLYLINE
  5
8E4
330
22
100
AcDbEntity
  8
PIPE
 62
     0
100
AcDbPolyline
 90
        2
 70
     0
 43
0.0
 10
785.608648974799
 20
4507.15447213142
 10
784.499261836305
 20
4417.37405224667
  0
LWPOLYLINE
  5
8E8
330
22
100
AcDbEntity
  8
PIPE
 62
     0
100
AcDbPolyline
 90
        3
 70
     0
 43
0.0
 10
785.608648974799
 20
4507.15447213142
 10
807.3352601329739
 20
4498.00418160338
 10
900.131321577499
 20
4493.47754463447
  0
LWPOLYLINE
  5
8ED
330
22
100
AcDbEntity
  8
PIPE
 62
     0
100
AcDbPolyline
 90
        3
 70
     0
 43
0.0
 10
787.53122262957
 20
4564.77207689472
 10
785.2679040577521
 20
4507.057455541189
 10
785.608648974799
 20
4507.15447213142
  0
LWPOLYLINE
  5
8F2
330
22
100
AcDbEntity
  8
PIPE
 62
     0
100
AcDbPolyline
 90
        2
 70
     0
 43
0.0
 10
709.935358593553
 20
4524.29972959472
 10
705.943579982856
 20
4620.900771452871
  0
LWPOLYLINE
  5
8F6
330
22
100
AcDbEntity
  8
PIPE
 62
     0
100
AcDbPolyline
 90
        2
 70
     0
 43
0.0
 10
628.503074935321
 20
4549.048756847628
 10
709.935358593553
 20
4524.29972959472
  0
LWPOLYLINE
  5
8FA
330
22
100
AcDbEntity
  8
PIPE
 62
     0
100
AcDbPolyline
 90
        2
 70
     0
 43
0.0
 10
627.704719213182
 20
4622.497482888539
 10
628.503074935321
 20
4549.048756847628
  0
LWPOLYLINE
  5
8FE
330
22
100
AcDbEntity
  8
PIPE
 62
     0
100
AcDbPolyline
 90
        2
 70
     0
 43
0.0
 10
628.503074935321
 20
4695.14785321161
 10
544.675724110671
 20
4695.14785321161
  0
LWPOLYLINE
  5
902
330
22
100
AcDbEntity
  8
PIPE
 62
     0
100
AcDbPolyline
 90
        2
 70
     0
 43
0.0
 10
627.704719213182
 20
4622.497482888539
 10
628.503074935321
 20
4695.14785321161
  0
LWPOLYLINE
  5
906
330
22
100
AcDbEntity
  8
PIPE
 62
     0
100
AcDbPolyline
 90
        2
 70
     0
 43
0.0
 10
705.943579982856
 20
4620.900771452871
 10
627.704719213182
 20
4622.497482888539
  0
LWPOLYLINE
  5
90A
330
22
100
AcDbEntity
  8
PIPE
 62
     0
100
AcDbPolyline
 90
        2
 70
     0
 43
0.0
 10
705.943579982856
 20
4620.900771452871
 10
705.943579982856
 20
4683.97087316191
  0
LWPOLYLINE
  5
90E
330
22
100
AcDbEntity
  8
PIPE
 62
     0
100
AcDbPolyline
 90
        2
 70
     0
 43
0.0
 10
785.833733700706
 20
4619.657550142689
 10
705.943579982856
 20
4620.900771452871
  0
LWPOLYLINE
  5
912
330
22
100
AcDbEntity
  8
PIPE
 62
     0
100
AcDbPolyline
 90
        2
 70
     0
 43
0.0
 10
785.833733700706
 20
4619.657550142689
 10
788.1742193632269
 20
4689.55936318676
  0
LWPOLYLINE
  5
916
330
22
100
AcDbEntity
  8
PIPE
 62
     0
100
AcDbPolyline
 90
        6
 70
     0
 43
0.0
 10
1443.68993115895
 20
4486.75571696302
 10
1448.67972354857
 20
4567.589062777051
 10
1448.67972354857
 20
4617.48629615625
 10
1456.66328059245
 20
4663.39175086511
 10
1457.66122522293
 20
4716.28281824706
 10
1453.66944670099
 20
4771.16977496418
  0
LWPOLYLINE
  5
91E
330
22
100
AcDbEntity
  8
PIPE
 62
     0
100
AcDbPolyline
 90
        2
 70
     0
 43
0.0
 10
1324.93458936856
 20
4566.59111810947
 10
1383.81332256711
 20
4564.5952287743
  0
LWPOLYLINE
  5
922
330
22
100
AcDbEntity
  8
PIPE
 62
     0
100
AcDbPolyline
 90
        2
 70
     0
 43
0.0
 10
1261.06613301758
 20
4566.59111810947
 10
1188.70443948425
 20
4569.86454348474
  0
LWPOLYLINE
  5
926
330
22
100
AcDbEntity
  8
PIPE
 62
     0
100
AcDbPolyline
 90
        2
 70
     0
 43
0.0
 10
1261.06613301758
 20
4566.59111810947
 10
1265.05791153951
 20
4706.30337157122
  0
LWPOLYLINE
  5
92A
330
22
100
AcDbEntity
  8
PIPE
 62
     0
100
AcDbPolyline
 90
        2
 70
     0
 43
0.0
 10
1324.93458936856
 20
4566.59111810947
 10
1320.94281084662
 20
4703.309537568471
  0
LWPOLYLINE
  5
92E
330
22
100
AcDbEntity
  8
PIPE
 62
     0
100
AcDbPolyline
 90
        2
 70
     0
 43
0.0
 10
1261.06613301758
 20
4566.59111810947
 10
1324.93458936856
 20
4566.59111810947
  0
LWPOLYLINE
  5
932
330
22
100
AcDbEntity
  8
PIPE
 62
     0
100
AcDbPolyline
 90
        2
 70
     0
 43
0.0
 10
1263.06195304134
 20
4489.74955096577
 10
1261.06613301758
 20
4566.59111810947
  0
LWPOLYLINE
  5
936
330
22
100
AcDbEntity
  8
PIPE
 62
     0
100
AcDbPolyline
 90
        2
 70
     0
 43
0.0
 10
1188.70443948425
 20
4569.86454348474
 10
1189.21411962273
 20
4694.32803556021
  0
LWPOLYLINE
  5
93A
330
22
100
AcDbEntity
  8
PIPE
 62
     0
100
AcDbPolyline
 90
        2
 70
     0
 43
0.0
 10
1112.88326732836
 20
4570.99620272697
 10
1114.36827233643
 20
4694.32803556021
  0
LWPOLYLINE
  5
93E
330
22
100
AcDbEntity
  8
PIPE
 62
     0
100
AcDbPolyline
 90
        2
 70
     0
 43
0.0
 10
1042.15456195906
 20
4572.693691590308
 10
1038.52448041964
 20
4680.356810214038
  0
LWPOLYLINE
  5
942
330
22
100
AcDbEntity
  8
PIPE
 62
     0
100
AcDbPolyline
 90
        2
 70
     0
 43
0.0
 10
965.2017305172579
 20
4565.90373613695
 10
965.6745223943087
 20
4711.29309490914
  0
LWPOLYLINE
  5
946
330
22
100
AcDbEntity
  8
PIPE
 62
     0
100
AcDbPolyline
 90
        2
 70
     0
 43
0.0
 10
1263.06195304134
 20
4489.74955096577
 10
1264.05990231143
 20
4415.901745018689
  0
LWPOLYLINE
  5
94A
330
22
100
AcDbEntity
  8
PIPE
 62
     0
100
AcDbPolyline
 90
        2
 70
     0
 43
0.0
 10
966.899219446121
 20
4415.95888654198
 10
964.4095064318598
 20
4342.627724298719
  0
LWPOLYLINE
  5
94E
330
22
100
AcDbEntity
  8
PIPE
 62
     0
100
AcDbPolyline
 90
        2
 70
     0
 43
0.0
 10
1042.15456195906
 20
4415.95888654198
 10
1040.00434291825
 20
4341.722396884071
  0
LWPOLYLINE
  5
952
330
22
100
AcDbEntity
  8
PIPE
 62
     0
100
AcDbPolyline
 90
        2
 70
     0
 43
0.0
 10
1191.53358769903
 20
4416.524716163098
 10
1114.58075625722
 20
4414.26139767864
  0
LWPOLYLINE
  5
956
330
22
100
AcDbEntity
  8
PIPE
 62
     0
100
AcDbPolyline
 90
        2
 70
     0
 43
0.0
 10
1264.05990231143
 20
4415.901745018689
 10
1266.05578693279
 20
4342.05374016335
  0
LWPOLYLINE
  5
95A
330
22
100
AcDbEntity
  8
PIPE
 62
     0
100
AcDbPolyline
 90
        2
 70
     0
 43
0.0
 10
1336.90986033677
 20
4415.901745018689
 10
1337.90780032764
 20
4341.05579549576
  0
LWPOLYLINE
  5
95E
330
22
100
AcDbEntity
  8
PIPE
 62
     0
100
AcDbPolyline
 90
        2
 70
     0
 43
0.0
 10
1408.76187373161
 20
4412.90791101594
 10
1407.76392446152
 20
4341.05579549576
  0
LWPOLYLINE
  5
962
330
22
100
AcDbEntity
  8
PIPE
 62
     0
100
AcDbPolyline
 90
        2
 70
     0
 43
0.0
 10
1408.76187373161
 20
4412.90791101594
 10
1408.76187373161
 20
4486.75581641715
  0
LWPOLYLINE
  5
966
330
22
100
AcDbEntity
  8
PIPE
 62
     0
100
AcDbPolyline
 90
        2
 70
     0
 43
0.0
 10
1408.76187373161
 20
4486.75581641715
 10
1324.93452013135
 20
4489.74955096577
  0
LWPOLYLINE
  5
96A
330
22
100
AcDbEntity
  8
PIPE
 62
     0
100
AcDbPolyline
 90
        2
 70
     0
 43
0.0
 10
1443.68993115895
 20
4486.75571696302
 10
1408.76187373161
 20
4486.75581641715
  0
LWPOLYLINE
  5
96E
330
22
100
AcDbEntity
  8
PIPE
 62
     0
100
AcDbPolyline
 90
        2
 70
     0
 43
0.0
 10
1336.90986033677
 20
4415.901745018689
 10
1408.76187373161
 20
4412.90791101594
  0
LWPOLYLINE
  5
972
330
22
100
AcDbEntity
  8
PIPE
 62
     0
100
AcDbPolyline
 90
        2
 70
     0
 43
0.0
 10
1264.05990231143
 20
4415.901745018689
 10
1336.90986033677
 20
4415.901745018689
  0
LWPOLYLINE
  5
976
330
22
100
AcDbEntity
  8
PIPE
 62
     0
100
AcDbPolyline
 90
        2
 70
     0
 43
0.0
 10
1191.53358769903
 20
4416.524716163098
 10
1264.05990231143
 20
4415.901745018689
  0
LWPOLYLINE
  5
97A
330
22
100
AcDbEntity
  8
PIPE
 62
     0
100
AcDbPolyline
 90
        2
 70
     0
 43
0.0
 10
1266.05578693279
 20
4342.05374016335
 10
1264.05989767183
 20
4202.3414867016
  0
LWPOLYLINE
  5
97E
330
22
100
AcDbEntity
  8
PIPE
 62
     0
100
AcDbPolyline
 90
        2
 70
     0
 43
0.0
 10
1337.90780032764
 20
4341.05579549576
 10
1336.90985569716
 20
4293.15445145174
  0
LWPOLYLINE
  5
982
330
22
100
AcDbEntity
  8
PIPE
 62
     0
100
AcDbPolyline
 90
        2
 70
     0
 43
0.0
 10
1407.76392446152
 20
4341.05579549576
 10
1411.75570298346
 20
4266.20994542697
  0
LWPOLYLINE
  5
986
330
22
100
AcDbEntity
  8
PIPE
 62
     0
100
AcDbPolyline
 90
        2
 70
     0
 43
0.0
 10
1337.90780032764
 20
4341.05579549576
 10
1407.76392446152
 20
4341.05579549576
  0
LWPOLYLINE
  5
98A
330
22
100
AcDbEntity
  8
PIPE
 62
     0
100
AcDbPolyline
 90
        2
 70
     0
 43
0.0
 10
1266.05578693279
 20
4342.05374016335
 10
1337.90780032764
 20
4341.05579549576
  0
LWPOLYLINE
  5
98E
330
22
100
AcDbEntity
  8
PIPE
 62
     0
100
AcDbPolyline
 90
        2
 70
     0
 43
0.0
 10
1192.09941734198
 20
4342.401035797279
 10
1266.05578693279
 20
4342.05374016335
  0
LWPOLYLINE
  5
992
330
22
100
AcDbEntity
  8
PIPE
 62
     0
100
AcDbPolyline
 90
        2
 70
     0
 43
0.0
 10
1263.06195304134
 20
4489.74955096577
 10
1190.40192841312
 20
4491.78005577114
  0
LWPOLYLINE
  5
996
330
22
100
AcDbEntity
  8
PIPE
 62
     0
100
AcDbPolyline
 90
        2
 70
     0
 43
0.0
 10
1324.93452013135
 20
4489.74955096577
 10
1263.06195304134
 20
4489.74955096577
  0
LWPOLYLINE
  5
99A
330
22
100
AcDbEntity
  8
PIPE
 62
     0
100
AcDbPolyline
 90
        5
 70
     0
 43
0.0
 10
2579.645310347111
 20
4537.450560122699
 10
2634.532265023731
 20
4564.39506614746
 10
2679.43977339551
 20
4585.35190416673
 10
2695.40688748325
 20
4592.337516839811
 10
2713.36989083197
 20
4584.353959499138
  0
LWPOLYLINE
  5
9A1
330
22
100
AcDbEntity
  8
PIPE
 62
     0
100
AcDbPolyline
 90
        6
 70
     0
 43
0.0
 10
2579.645310347111
 20
4537.450560122699
 10
2579.645310347111
 20
4551.42178546887
 10
2513.78096473516
 20
4559.405342809539
 10
2442.9268959708
 20
4558.407398141961
 10
2363.09132553208
 20
4560.403287477129
 10
2308.20437085546
 20
4569.384789485378
  0
LWPOLYLINE
  5
9A9
330
22
100
AcDbEntity
  8
PIPE
 62
     0
100
AcDbPolyline
 90
        3
 70
     0
 43
0.0
 10
2581.641199608081
 20
4426.678702020878
 10
2586.6309227605
 20
4493.540994749
 10
2579.645310347111
 20
4537.450560122699
  0
LWPOLYLINE
  5
9AE
330
22
100
AcDbEntity
  8
PIPE
 62
     0
100
AcDbPolyline
 90
        4
 70
     0
 43
0.0
 10
2246.33180376545
 20
4389.75474932027
 10
2208.40990780705
 20
4387.758859985109
 10
2162.50445480479
 20
4376.78146864168
 10
2129.57228199882
 20
4364.806132630671
  0
LWPOLYLINE
  5
9B4
330
22
100
AcDbEntity
  8
PIPE
 62
     0
100
AcDbPolyline
 90
        4
 70
     0
 43
0.0
 10
2246.33180376545
 20
4389.75474932027
 10
2231.36263430819
 20
4313.91095458389
 10
2213.39963095947
 20
4279.98083588604
 10
2172.48390110963
 20
4266.00961053986
  0
LWPOLYLINE
  5
9BA
330
22
100
AcDbEntity
  8
PIPE
 62
     0
100
AcDbPolyline
 90
        4
 70
     0
 43
0.0
 10
2389.03788592466
 20
4350.8349072845
 10
2336.14682050901
 20
4366.80202196584
 10
2292.237256767711
 20
4377.77941330926
 10
2246.33180376545
 20
4389.75474932027
  0
LWPOLYLINE
  5
9C0
330
22
100
AcDbEntity
  8
PIPE
 62
     0
100
AcDbPolyline
 90
        7
 70
     0
 43
0.0
 10
2389.03788592466
 20
4350.8349072845
 10
2415.98239094773
 20
4374.78557930651
 10
2460.889899319511
 20
4374.78557930651
 10
2488.832348973061
 20
4383.767081314771
 10
2514.77890936565
 20
4400.7321406637
 10
2549.70697143259
 20
4420.691034015371
 10
2581.641199608081
 20
4426.678702020878
  0
LWPOLYLINE
  5
9C9
330
22
100
AcDbEntity
  8
PIPE
 62
     0
100
AcDbPolyline
 90
        4
 70
     0
 43
0.0
 10
2302.21670307255
 20
4257.02810853161
 10
2341.13654366143
 20
4299.939729237721
 10
2378.06049498934
 20
4341.853405276238
 10
2389.03788592466
 20
4350.8349072845
  0
LWPOLYLINE
  5
9CF
330
22
100
AcDbEntity
  8
PIPE
 62
     0
100
AcDbPolyline
 90
        2
 70
     0
 43
0.0
 10
2176.47567963156
 20
3987.58304828394
 10
2434.94333892693
 20
4152.243918435289
  0
LWPOLYLINE
  5
9D3
330
22
100
AcDbEntity
  8
PIPE
 62
     0
100
AcDbPolyline
 90
        2
 70
     0
 43
0.0
 10
2176.47567963156
 20
3987.58304828394
 10
2135.31055903328
 20
4021.513207256428
  0
LWPOLYLINE
  5
9D7
330
22
100
AcDbEntity
  8
PIPE
 62
     0
100
AcDbPolyline
 90
        2
 70
     0
 43
0.0
 10
2274.27438237627
 20
3910.74105477229
 10
2176.47567963156
 20
3987.58304828394
  0
LWPOLYLINE
  5
9DB
330
22
100
AcDbEntity
  8
PIPE
 62
     0
100
AcDbPolyline
 90
        9
 70
     0
 43
0.0
 10
2581.641199608081
 20
4426.678702020878
 10
2578.64736571662
 20
4372.789689971351
 10
2579.645310347111
 20
4331.873958600399
 10
2559.68641773743
 20
4297.94383990255
 10
2512.78302010468
 20
4267.007555207448
 10
2441.92895134031
 20
4233.07743650959
 10
2418.97622483918
 20
4209.12676448758
 10
2412.988557056281
 20
4180.186369127639
 10
2434.94333892693
 20
4152.243918435289
  0
LWPOLYLINE
  5
9E6
330
22
100
AcDbEntity
  8
PIPE
 62
     0
100
AcDbPolyline
 90
        7
 70
     0
 43
0.0
 10
2135.31055903328
 20
4021.513207256428
 10
2171.48595647914
 20
4048.45767300656
 10
2188.45101519737
 20
4057.43917501482
 10
2192.44279371931
 20
4084.383681039589
 10
2193.44073834979
 20
4118.313799737438
 10
2216.393464850931
 20
4156.235697105629
 10
2302.21670307255
 20
4257.02810853161
  0
LWPOLYLINE
  5
9EF
330
22
100
AcDbEntity
  8
PIPE
 62
     0
100
AcDbPolyline
 90
        2
 70
     0
 43
0.0
 10
2402.01129507822
 20
3811.944532681479
 10
2274.27438237627
 20
3910.74105477229
  0
LWPOLYLINE
  5
9F3
330
22
100
AcDbEntity
  8
PIPE
 62
     0
100
AcDbPolyline
 90
        4
 70
     0
 43
0.0
 10
2402.01129507822
 20
3811.944532681479
 10
2393.81666431948
 20
3788.9932589516
 10
2393.81666431948
 20
3743.11937473886
 10
2392.88318458027
 20
3737.90329587416
  0
LWPOLYLINE
  5
9F9
330
22
100
AcDbEntity
  8
PIPE
 62
     0
100
AcDbPolyline
 90
        5
 70
     0
 43
0.0
 10
2580.98198286992
 20
3669.72115154039
 10
2563.85586089329
 20
3696.022186947111
 10
2506.36059298704
 20
3738.22616042284
 10
2402.37978932679
 20
3814.070982321231
 10
2402.01129507822
 20
3811.944532681479
  0
LWPOLYLINE
  5
A00
330
22
100
AcDbEntity
  8
PIPE
 62
     0
100
AcDbPolyline
 90
        2
 70
     0
 43
0.0
 10
2135.31055903328
 20
4021.513207256428
 10
2081.421315745211
 20
3915.25850408179
  0
LWPOLYLINE
  5
A04
330
22
100
AcDbEntity
  8
PIPE
 62
     0
100
AcDbPolyline
 90
        2
 70
     0
 43
0.0
 10
1906.74226003583
 20
4005.73238047681
 10
1887.50411166818
 20
3957.6370353597
  0
LWPOLYLINE
  5
A08
330
22
100
AcDbEntity
  8
PIPE
 62
     0
100
AcDbPolyline
 90
        2
 70
     0
 43
0.0
 10
1958.23275754468
 20
4159.07220779846
 10
1906.74226003583
 20
4005.73238047681
  0
LWPOLYLINE
  5
A0C
330
22
100
AcDbEntity
  8
PIPE
 62
     0
100
AcDbPolyline
 90
        3
 70
     0
 43
0.0
 10
1654.948128413909
 20
3954.24205763302
 10
1659.47470606475
 20
3973.480092073371
 10
1656.07972820702
 20
4363.336701020279
  0
LWPOLYLINE
  5
A11
330
22
100
AcDbEntity
  8
PIPE
 62
     0
100
AcDbPolyline
 90
        2
 70
     0
 43
0.0
 10
1793.57639093774
 20
3955.93954649636
 10
1887.50411166818
 20
3957.6370353597
  0
LWPOLYLINE
  5
A15
330
22
100
AcDbEntity
  8
PIPE
 62
     0
100
AcDbPolyline
 90
        2
 70
     0
 43
0.0
 10
1793.57639093774
 20
3955.93954649636
 10
1794.70805022365
 20
3860.31434052825
  0
LWPOLYLINE
  5
A19
330
22
100
AcDbEntity
  8
PIPE
 62
     0
100
AcDbPolyline
 90
        2
 70
     0
 43
0.0
 10
1654.948128413909
 20
3954.24205763302
 10
1793.57639093774
 20
3955.93954649636
  0
LWPOLYLINE
  5
A1D
330
22
100
AcDbEntity
  8
PIPE
 62
     0
100
AcDbPolyline
 90
        2
 70
     0
 43
0.0
 10
1657.77727662868
 20
3720.55442411331
 10
1654.948128413909
 20
3954.24205763302
  0
LWPOLYLINE
  5
A21
330
22
100
AcDbEntity
  8
PIPE
 62
     0
100
AcDbPolyline
 90
        2
 70
     0
 43
0.0
 10
1657.77727662868
 20
3720.55442411331
 10
1566.11287447006
 20
3720.55442411331
  0
LWPOLYLINE
  5
A25
330
22
100
AcDbEntity
  8
PIPE
 62
     0
100
AcDbPolyline
 90
        2
 70
     0
 43
0.0
 10
1657.9674984148
 20
3640.361866487462
 10
1657.77727662868
 20
3720.55442411331
  0
LWPOLYLINE
  5
A29
330
22
100
AcDbEntity
  8
PIPE
 62
     0
100
AcDbPolyline
 90
        2
 70
     0
 43
0.0
 10
898.999662291591
 20
4620.78920938492
 10
900.697151220454
 20
4565.337906515839
  0
LWPOLYLINE
  5
A2D
330
22
100
AcDbEntity
  8
PIPE
 62
     0
100
AcDbPolyline
 90
        2
 70
     0
 43
0.0
 10
785.833733700706
 20
4619.657550142689
 10
898.999662291591
 20
4620.78920938492
  0
LWPOLYLINE
  5
A31
330
22
100
AcDbEntity
  8
PIPE
 62
     0
100
AcDbPolyline
 90
        2
 70
     0
 43
0.0
 10
787.53122262957
 20
4564.77207689472
 10
785.833733700706
 20
4619.657550142689
  0
LWPOLYLINE
  5
A35
330
22
100
AcDbEntity
  8
PIPE
 62
     0
100
AcDbPolyline
 90
        3
 70
     0
 43
0.0
 10
900.697151220454
 20
4565.337906515839
 10
787.53122262957
 20
4565.90373613695
 10
787.53122262957
 20
4564.77207689472
  0
LWPOLYLINE
  5
A3A
330
22
100
AcDbEntity
  8
PIPE
 62
     0
100
AcDbPolyline
 90
        2
 70
     0
 43
0.0
 10
965.2017305172579
 20
4565.90373613695
 10
966.333389803167
 20
4493.47754463447
  0
LWPOLYLINE
  5
A3E
330
22
100
AcDbEntity
  8
PIPE
 62
     0
100
AcDbPolyline
 90
        2
 70
     0
 43
0.0
 10
1112.88326732836
 20
4570.99620272697
 10
1112.88326732836
 20
4492.345885392249
  0
LWPOLYLINE
  5
A42
330
22
100
AcDbEntity
  8
PIPE
 62
     0
100
AcDbPolyline
 90
        2
 70
     0
 43
0.0
 10
1188.70443948425
 20
4569.86454348474
 10
1190.40192841312
 20
4491.78005577114
  0
LWPOLYLINE
  5
A46
330
22
100
AcDbEntity
  8
PIPE
 62
     0
100
AcDbPolyline
 90
        2
 70
     0
 43
0.0
 10
1112.88326732836
 20
4570.99620272697
 10
1188.70443948425
 20
4569.86454348474
  0
LWPOLYLINE
  5
A4A
330
22
100
AcDbEntity
  8
PIPE
 62
     0
100
AcDbPolyline
 90
        2
 70
     0
 43
0.0
 10
1042.15456195906
 20
4572.693691590308
 10
1112.88326732836
 20
4570.99620272697
  0
LWPOLYLINE
  5
A4E
330
22
100
AcDbEntity
  8
PIPE
 62
     0
100
AcDbPolyline
 90
        2
 70
     0
 43
0.0
 10
1042.15456195906
 20
4572.693691590308
 10
1039.32541374429
 20
4492.911715013359
  0
LWPOLYLINE
  5
A52
330
22
100
AcDbEntity
  8
PIPE
 62
     0
100
AcDbPolyline
 90
        3
 70
     0
 43
0.0
 10
965.2017305172579
 20
4565.90373613695
 10
965.767560160212
 20
4573.82535083253
 10
1042.15456195906
 20
4572.693691590308
  0
LWPOLYLINE
  5
A57
330
22
100
AcDbEntity
  8
PIPE
 62
     0
100
AcDbPolyline
 90
        2
 70
     0
 43
0.0
 10
900.697151220454
 20
4565.337906515839
 10
965.2017305172579
 20
4565.90373613695
  0
LWPOLYLINE
  5
A5B
330
22
100
AcDbEntity
  8
PIPE
 62
     0
100
AcDbPolyline
 90
        2
 70
     0
 43
0.0
 10
900.131321577499
 20
4493.47754463447
 10
900.697151220454
 20
4565.337906515839
  0
LWPOLYLINE
  5
A5F
330
22
100
AcDbEntity
  8
PIPE
 62
     0
100
AcDbPolyline
 90
        2
 70
     0
 43
0.0
 10
966.899219446121
 20
4415.95888654198
 10
966.333389803167
 20
4493.47754463447
  0
LWPOLYLINE
  5
A63
330
22
100
AcDbEntity
  8
PIPE
 62
     0
100
AcDbPolyline
 90
        2
 70
     0
 43
0.0
 10
1042.15456195906
 20
4415.95888654198
 10
1039.32541374429
 20
4492.911715013359
  0
LWPOLYLINE
  5
A67
330
22
100
AcDbEntity
  8
PIPE
 62
     0
100
AcDbPolyline
 90
        2
 70
     0
 43
0.0
 10
1114.58075625722
 20
4414.26139767864
 10
1112.88326732836
 20
4492.345885392249
  0
LWPOLYLINE
  5
A6B
330
22
100
AcDbEntity
  8
PIPE
 62
     0
100
AcDbPolyline
 90
        2
 70
     0
 43
0.0
 10
1192.09941734198
 20
4342.401035797279
 10
1116.05184309617
 20
4341.722396884071
  0
LWPOLYLINE
  5
A6F
330
22
100
AcDbEntity
  8
PIPE
 62
     0
100
AcDbPolyline
 90
        2
 70
     0
 43
0.0
 10
1191.53358769903
 20
4416.524716163098
 10
1192.09941734198
 20
4342.401035797279
  0
LWPOLYLINE
  5
A73
330
22
100
AcDbEntity
  8
PIPE
 62
     0
100
AcDbPolyline
 90
        2
 70
     0
 43
0.0
 10
1190.40192841312
 20
4491.78005577114
 10
1191.53358769903
 20
4416.524716163098
  0
LWPOLYLINE
  5
A77
330
22
100
AcDbEntity
  8
PIPE
 62
     0
100
AcDbPolyline
 90
        2
 70
     0
 43
0.0
 10
1112.88326732836
 20
4492.345885392249
 10
1190.40192841312
 20
4491.78005577114
  0
LWPOLYLINE
  5
A7B
330
22
100
AcDbEntity
  8
PIPE
 62
     0
100
AcDbPolyline
 90
        2
 70
     0
 43
0.0
 10
1039.32541374429
 20
4492.911715013359
 10
1112.88326732836
 20
4492.345885392249
  0
LWPOLYLINE
  5
A7F
330
22
100
AcDbEntity
  8
PIPE
 62
     0
100
AcDbPolyline
 90
        2
 70
     0
 43
0.0
 10
966.333389803167
 20
4493.47754463447
 10
1039.32541374429
 20
4492.911715013359
  0
LWPOLYLINE
  5
A83
330
22
100
AcDbEntity
  8
PIPE
 62
     0
100
AcDbPolyline
 90
        2
 70
     0
 43
0.0
 10
900.131321577499
 20
4493.47754463447
 10
966.333389803167
 20
4493.47754463447
  0
LWPOLYLINE
  5
A87
330
22
100
AcDbEntity
  8
PIPE
 62
     0
100
AcDbPolyline
 90
        2
 70
     0
 43
0.0
 10
901.2629808634081
 20
4415.39305692087
 10
900.131321577499
 20
4493.47754463447
  0
LWPOLYLINE
  5
A8B
330
22
100
AcDbEntity
  8
PIPE
 62
     0
100
AcDbPolyline
 90
        2
 70
     0
 43
0.0
 10
966.899219446121
 20
4415.95888654198
 10
901.2629808634081
 20
4415.39305692087
  0
LWPOLYLINE
  5
A8F
330
22
100
AcDbEntity
  8
PIPE
 62
     0
100
AcDbPolyline
 90
        2
 70
     0
 43
0.0
 10
1042.15456195906
 20
4415.95888654198
 10
966.899219446121
 20
4415.95888654198
  0
LWPOLYLINE
  5
A93
330
22
100
AcDbEntity
  8
PIPE
 62
     0
100
AcDbPolyline
 90
        2
 70
     0
 43
0.0
 10
1114.58075625722
 20
4414.26139767864
 10
1042.15456195906
 20
4415.95888654198
  0
LWPOLYLINE
  5
A97
330
22
100
AcDbEntity
  8
PIPE
 62
     0
100
AcDbPolyline
 90
        2
 70
     0
 43
0.0
 10
1116.05184309617
 20
4341.722396884071
 10
1114.58075625722
 20
4414.26139767864
  0
LWPOLYLINE
  5
A9B
330
22
100
AcDbEntity
  8
PIPE
 62
     0
100
AcDbPolyline
 90
        2
 70
     0
 43
0.0
 10
966.672824889537
 20
4072.84015473207
 10
1024.16111371451
 20
4072.38749102474
  0
LWPOLYLINE
  5
A9F
330
22
100
AcDbEntity
  8
PIPE
 62
     0
100
AcDbPolyline
 90
        2
 70
     0
 43
0.0
 10
966.2201611980007
 20
4133.94975522116
 10
966.672824889537
 20
4072.84015473207
  0
LWPOLYLINE
  5
AA3
330
22
100
AcDbEntity
  8
PIPE
 62
     0
100
AcDbPolyline
 90
        2
 70
     0
 43
0.0
 10
966.2201611980007
 20
4133.94975522116
 10
1042.72032506746
 20
4134.40241892848
  0
LWPOLYLINE
  5
AA7
330
22
100
AcDbEntity
  8
PIPE
 62
     0
100
AcDbPolyline
 90
        2
 70
     0
 43
0.0
 10
966.2201611980007
 20
4267.032885175178
 10
966.2201611980007
 20
4133.94975522116
  0
LWPOLYLINE
  5
AAB
330
22
100
AcDbEntity
  8
PIPE
 62
     0
100
AcDbPolyline
 90
        2
 70
     0
 43
0.0
 10
964.4095064318598
 20
4342.627724298719
 10
966.2201611980007
 20
4267.032885175178
  0
LWPOLYLINE
  5
AAF
330
22
100
AcDbEntity
  8
PIPE
 62
     0
100
AcDbPolyline
 90
        2
 70
     0
 43
0.0
 10
899.6785985423199
 20
4342.627724298719
 10
898.7732711592499
 20
4267.48554888251
  0
LWPOLYLINE
  5
AB3
330
22
100
AcDbEntity
  8
PIPE
 62
     0
100
AcDbPolyline
 90
        2
 70
     0
 43
0.0
 10
964.4095064318598
 20
4342.627724298719
 10
899.6785985423199
 20
4342.627724298719
  0
LWPOLYLINE
  5
AB7
330
22
100
AcDbEntity
  8
PIPE
 62
     0
100
AcDbPolyline
 90
        2
 70
     0
 43
0.0
 10
1040.00434291825
 20
4341.722396884071
 10
964.4095064318598
 20
4342.627724298719
  0
LWPOLYLINE
  5
ABB
330
22
100
AcDbEntity
  8
PIPE
 62
     0
100
AcDbPolyline
 90
        2
 70
     0
 43
0.0
 10
1116.05184309617
 20
4341.722396884071
 10
1114.69385202156
 20
4267.93821258983
  0
LWPOLYLINE
  5
ABF
330
22
100
AcDbEntity
  8
PIPE
 62
     0
100
AcDbPolyline
 90
        2
 70
     0
 43
0.0
 10
1040.00434291825
 20
4341.722396884071
 10
1116.05184309617
 20
4341.722396884071
  0
LWPOLYLINE
  5
AC3
330
22
100
AcDbEntity
  8
PIPE
 62
     0
100
AcDbPolyline
 90
        2
 70
     0
 43
0.0
 10
1040.90967030132
 20
4267.032885175178
 10
1040.00434291825
 20
4341.722396884071
  0
LWPOLYLINE
  5
AC7
330
22
100
AcDbEntity
  8
PIPE
 62
     0
100
AcDbPolyline
 90
        2
 70
     0
 43
0.0
 10
1042.72032506746
 20
4134.40241892848
 10
1040.90967030132
 20
4267.032885175178
  0
LWPOLYLINE
  5
ACB
330
22
100
AcDbEntity
  8
PIPE
 62
     0
100
AcDbPolyline
 90
        2
 70
     0
 43
0.0
 10
1113.78852463849
 20
4133.044427806509
 10
1042.72032506746
 20
4134.40241892848
  0
LWPOLYLINE
  5
ACF
330
22
100
AcDbEntity
  8
PIPE
 62
     0
100
AcDbPolyline
 90
        2
 70
     0
 43
0.0
 10
1113.78852463849
 20
4133.044427806509
 10
1114.69385202156
 20
4267.93821258983
  0
LWPOLYLINE
  5
AD3
330
22
100
AcDbEntity
  8
PIPE
 62
     0
100
AcDbPolyline
 90
        2
 70
     0
 43
0.0
 10
1113.78849323277
 20
4023.952323247979
 10
1113.78852463849
 20
4133.044427806509
  0
LWPOLYLINE
  5
AD7
330
22
100
AcDbEntity
  8
PIPE
 62
     0
100
AcDbPolyline
 90
        2
 70
     0
 43
0.0
 10
898.7732711592499
 20
4267.48554888251
 10
898.7732711592499
 20
4114.93787951344
  0
LWPOLYLINE
  5
ADB
330
22
100
AcDbEntity
  8
PIPE
 62
     0
100
AcDbPolyline
 90
        2
 70
     0
 43
0.0
 10
966.2201611980007
 20
4267.032885175178
 10
898.7732711592499
 20
4267.48554888251
  0
LWPOLYLINE
  5
ADF
330
22
100
AcDbEntity
  8
PIPE
 62
     0
100
AcDbPolyline
 90
        2
 70
     0
 43
0.0
 10
1040.90967030132
 20
4267.032885175178
 10
966.2201611980007
 20
4267.032885175178
  0
LWPOLYLINE
  5
AE3
330
22
100
AcDbEntity
  8
PIPE
 62
     0
100
AcDbPolyline
 90
        2
 70
     0
 43
0.0
 10
1114.69385202156
 20
4267.93821258983
 10
1040.90967030132
 20
4267.032885175178
  0
LWPOLYLINE
  5
AE7
330
22
100
AcDbEntity
  8
PIPE
 62
     0
100
AcDbPolyline
 90
        2
 70
     0
 43
0.0
 10
1113.78849323277
 20
4023.952323247979
 10
1115.14648430738
 20
3963.29538646622
  0
LWPOLYLINE
  5
AEB
330
22
100
AcDbEntity
  8
PIPE
 62
     0
100
AcDbPolyline
 90
        2
 70
     0
 43
0.0
 10
997.4539245082139
 20
4023.499659540648
 10
1113.78849323277
 20
4023.952323247979
  0
LWPOLYLINE
  5
AEF
330
22
100
AcDbEntity
  8
PIPE
 62
     0
100
AcDbPolyline
 90
        4
 70
     0
 43
0.0
 10
1019.63444539344
 20
3964.20071388087
 10
989.758641752115
 20
4008.10909349155
 10
993.8326149759319
 20
4021.68900471135
 10
997.4539245082139
 20
4023.499659540648
  0
LWPOLYLINE
  5
AF5
330
22
100
AcDbEntity
  8
PIPE
 62
     0
100
AcDbPolyline
 90
        2
 70
     0
 43
0.0
 10
1115.14648430738
 20
3963.29538646622
 10
1019.63444539344
 20
3964.20071388087
  0
LWPOLYLINE
  5
AF9
330
22
100
AcDbEntity
  8
PIPE
 62
     0
100
AcDbPolyline
 90
        2
 70
     0
 43
0.0
 10
1115.14648495492
 20
3759.14400654391
 10
1115.14648430738
 20
3963.29538646622
  0
LWPOLYLINE
  5
AFD
330
22
100
AcDbEntity
  8
PIPE
 62
     0
100
AcDbPolyline
 90
        3
 70
     0
 43
0.0
 10
1166.75014578994
 20
3706.63501649403
 10
1187.12001190902
 20
3730.62619298234
 10
1189.83599405823
 20
3837.45482791141
  0
LWPOLYLINE
  5
B02
330
22
100
AcDbEntity
  8
PIPE
 62
     0
100
AcDbPolyline
 90
        2
 70
     0
 43
0.0
 10
1166.75014578994
 20
3706.63501649403
 10
1115.14648495492
 20
3759.14400654391
  0
LWPOLYLINE
  5
B06
330
22
100
AcDbEntity
  8
PIPE
 62
     0
100
AcDbPolyline
 90
        3
 70
     0
 43
0.0
 10
1242.34498227632
 20
3660.01065463939
 10
1189.83599405823
 20
3689.43379561562
 10
1166.75014578994
 20
3706.63501649403
  0
LWPOLYLINE
  5
B0B
330
22
100
AcDbEntity
  8
PIPE
 62
     0
100
AcDbPolyline
 90
        3
 70
     0
 43
0.0
 10
1242.34498227632
 20
3660.01065463939
 10
1258.64087517159
 20
3688.52846820096
 10
1259.9988662462
 20
3837.00216420409
  0
LWPOLYLINE
  5
B10
330
22
100
AcDbEntity
  8
PIPE
 62
     0
100
AcDbPolyline
 90
        4
 70
     0
 43
0.0
 10
1331.79705676515
 20
3639.79414596872
 10
1289.87466988752
 20
3641.90410634632
 10
1255.47222933084
 20
3653.22069902949
 10
1242.34498227632
 20
3660.01065463939
  0
LWPOLYLINE
  5
B16
330
22
100
AcDbEntity
  8
PIPE
 62
     0
100
AcDbPolyline
 90
        2
 70
     0
 43
0.0
 10
1331.79705676515
 20
3639.79414596872
 10
1330.16173843416
 20
3839.718146448052
  0
LWPOLYLINE
  5
B1A
330
22
100
AcDbEntity
  8
PIPE
 62
     0
100
AcDbPolyline
 90
        2
 70
     0
 43
0.0
 10
1402.75976560827
 20
3635.92345255474
 10
1402.13526538826
 20
3844.244783521311
  0
LWPOLYLINE
  5
B1E
330
22
100
AcDbEntity
  8
PIPE
 62
     0
100
AcDbPolyline
 90
        2
 70
     0
 43
0.0
 10
1656.93531354407
 20
3511.338756079471
 10
1656.41923513594
 20
3403.991374904681
  0
LWPOLYLINE
  5
B22
330
22
100
AcDbEntity
  8
PIPE
 62
     0
100
AcDbPolyline
 90
        2
 70
     0
 43
0.0
 10
1657.9674984148
 20
3640.361866487462
 10
1656.93531354407
 20
3511.338756079471
  0
LWPOLYLINE
  5
B26
330
22
100
AcDbEntity
  8
PIPE
 62
     0
100
AcDbPolyline
 90
        2
 70
     0
 43
0.0
 10
1563.39353380769
 20
3509.48080103131
 10
1656.93531354407
 20
3511.338756079471
  0
LWPOLYLINE
  5
B2A
330
22
100
AcDbEntity
  8
PIPE
 62
     0
100
AcDbPolyline
 90
        2
 70
     0
 43
0.0
 10
1564.68376487757
 20
3401.74650100879
 10
1656.41923513594
 20
3403.991374904681
  0
LWPOLYLINE
  5
B2E
330
22
100
AcDbEntity
  8
PIPE
 62
     0
100
AcDbPolyline
 90
        2
 70
     0
 43
0.0
 10
1563.39353380769
 20
3284.98058302031
 10
1430.66762165009
 20
3284.95902869389
  0
LWPOLYLINE
  5
B32
330
22
100
AcDbEntity
  8
PIPE
 62
     0
100
AcDbPolyline
 90
        2
 70
     0
 43
0.0
 10
1564.68376487757
 20
3401.74650100879
 10
1563.39353380769
 20
3284.98058302031
  0
LWPOLYLINE
  5
B36
330
22
100
AcDbEntity
  8
PIPE
 62
     0
100
AcDbPolyline
 90
        2
 70
     0
 43
0.0
 10
1563.39353380769
 20
3509.48080103131
 10
1564.68376487757
 20
3401.74650100879
  0
LWPOLYLINE
  5
B3A
330
22
100
AcDbEntity
  8
PIPE
 62
     0
100
AcDbPolyline
 90
        2
 70
     0
 43
0.0
 10
1563.39353380769
 20
3637.21368369273
 10
1563.39353380769
 20
3509.48080103131
  0
LWPOLYLINE
  5
B3E
330
22
100
AcDbEntity
  8
PIPE
 62
     0
100
AcDbPolyline
 90
        2
 70
     0
 43
0.0
 10
1380.8258374204
 20
3635.92345255474
 10
1331.79705676515
 20
3639.79414596872
  0
LWPOLYLINE
  5
B42
330
22
100
AcDbEntity
  8
PIPE
 62
     0
100
AcDbPolyline
 90
        2
 70
     0
 43
0.0
 10
1402.75976560827
 20
3635.92345255474
 10
1380.8258374204
 20
3635.92345255474
  0
LWPOLYLINE
  5
B46
330
22
100
AcDbEntity
  8
PIPE
 62
     0
100
AcDbPolyline
 90
        2
 70
     0
 43
0.0
 10
1440.82158216958
 20
3635.92345255474
 10
1402.75976560827
 20
3635.92345255474
  0
LWPOLYLINE
  5
B4A
330
22
100
AcDbEntity
  8
PIPE
 62
     0
100
AcDbPolyline
 90
        2
 70
     0
 43
0.0
 10
1563.39353380769
 20
3637.21368369273
 10
1440.82158216958
 20
3635.92345255474
  0
LWPOLYLINE
  5
B4E
330
22
100
AcDbEntity
  8
PIPE
 62
     0
100
AcDbPolyline
 90
        2
 70
     0
 43
0.0
 10
1657.9674984148
 20
3640.361866487462
 10
1563.39353380769
 20
3637.21368369273
  0
LWPOLYLINE
  5
B52
330
22
100
AcDbEntity
  8
PIPE
 62
     0
100
AcDbPolyline
 90
        2
 70
     0
 43
0.0
 10
1887.88665526398
 20
3664.95366331091
 10
1887.88662742482
 20
3824.29707565587
  0
LWPOLYLINE
  5
B56
330
22
100
AcDbEntity
  8
PIPE
 62
     0
100
AcDbPolyline
 90
        6
 70
     0
 43
0.0
 10
2081.421315745211
 20
3915.25850408179
 10
2106.58082160777
 20
3903.00130827084
 10
2130.45009640046
 20
3890.0989968909
 10
2156.25471779796
 20
3875.26133880396
 10
2172.38260617139
 20
3864.93948970001
 10
2171.09237510152
 20
3832.68371125016
  0
LWPOLYLINE
  5
B5E
330
22
100
AcDbEntity
  8
PIPE
 62
     0
100
AcDbPolyline
 90
        2
 70
     0
 43
0.0
 10
2067.87388951153
 20
3887.51853461491
 10
2081.421315745211
 20
3915.25850408179
  0
LWPOLYLINE
  5
B62
330
22
100
AcDbEntity
  8
PIPE
 62
     0
100
AcDbPolyline
 90
       10
 70
     0
 43
0.0
 10
1887.88665526398
 20
3664.95366331091
 10
1916.91685433617
 20
3675.92062798386
 10
1943.3665912686
 20
3692.69363277778
 10
1965.94563499141
 20
3713.98244655469
 10
1985.29910103953
 20
3737.20660703858
 10
2002.07210494791
 20
3761.07588309148
 10
2016.26464671653
 20
3788.170736989361
 10
2034.97299722972
 20
3817.846053163221
 10
2049.81065453328
 20
3852.03717832007
 10
2067.87388951153
 20
3887.51853461491
  0
LWPOLYLINE
  5
B6E
330
22
100
AcDbEntity
  8
PIPE
 62
     0
100
AcDbPolyline
 90
        4
 70
     0
 43
0.0
 10
1802.47338031797
 20
3642.94232869562
 10
1833.69695032924
 20
3646.89042737899
 10
1872.40388242548
 20
3655.92204534495
 10
1887.88665526398
 20
3664.95366331091
  0
LWPOLYLINE
  5
B74
330
22
100
AcDbEntity
  8
PIPE
 62
     0
100
AcDbPolyline
 90
        2
 70
     0
 43
0.0
 10
1718.35031335291
 20
3641.91014381236
 10
1657.9674984148
 20
3640.361866487462
  0
LWPOLYLINE
  5
B78
330
22
100
AcDbEntity
  8
PIPE
 62
     0
100
AcDbPolyline
 90
        2
 70
     0
 43
0.0
 10
1729.70434693102
 20
3510.30657119621
 10
1656.93531354407
 20
3511.338756079471
  0
LWPOLYLINE
  5
B7C
330
22
100
AcDbEntity
  8
PIPE
 62
     0
100
AcDbPolyline
 90
        2
 70
     0
 43
0.0
 10
1729.70434693102
 20
3510.30657119621
 10
1728.67216206028
 20
3401.41106601186
  0
LWPOLYLINE
  5
B80
330
22
100
AcDbEntity
  8
PIPE
 62
     0
100
AcDbPolyline
 90
        3
 70
     0
 43
0.0
 10
1728.67216206028
 20
3401.41106601186
 10
1774.60440283532
 20
3401.92700513815
 10
1801.4412785033
 20
3416.8938523037
  0
LWPOLYLINE
  5
B85
330
22
100
AcDbEntity
  8
PIPE
 62
     0
100
AcDbPolyline
 90
        3
 70
     0
 43
0.0
 10
1656.41923513594
 20
3403.991374904681
 10
1725.05952903995
 20
3401.92700513815
 10
1728.67216206028
 20
3401.41106601186
  0
LWPOLYLINE
  5
B8A
330
22
100
AcDbEntity
  8
PIPE
 62
     0
100
AcDbPolyline
 90
        4
 70
     0
 43
0.0
 10
1718.35031335291
 20
3641.91014381236
 10
1721.44686796512
 20
3545.916949668811
 10
1726.60779231881
 20
3521.14451247048
 10
1729.70434693102
 20
3510.30657119621
  0
LWPOLYLINE
  5
B90
330
22
100
AcDbEntity
  8
PIPE
 62
     0
100
AcDbPolyline
 90
        2
 70
     0
 43
0.0
 10
1802.47338031797
 20
3642.94232869562
 10
1718.35031335291
 20
3641.91014381236
  0
LWPOLYLINE
  5
B94
330
22
100
AcDbEntity
  8
PIPE
 62
     0
100
AcDbPolyline
 90
        2
 70
     0
 43
0.0
 10
1801.4412785033
 20
3589.78482025041
 10
1802.47338031797
 20
3642.94232869562
  0
LWPOLYLINE
  5
B98
330
22
100
AcDbEntity
  8
PIPE
 62
     0
100
AcDbPolyline
 90
        2
 70
     0
 43
0.0
 10
1655.90314270058
 20
3289.93494530401
 10
1656.41923513594
 20
3403.991374904681
  0
LWPOLYLINE
  5
B9C
330
22
100
AcDbEntity
  8
PIPE
 62
     0
100
AcDbPolyline
 90
        2
 70
     0
 43
0.0
 10
1909.30440800443
 20
3286.83855307498
 10
1655.90314270058
 20
3289.93494530401
  0
LWPOLYLINE
  5
BA0
330
22
100
AcDbEntity
  8
PIPE
 62
     0
100
AcDbPolyline
 90
        2
 70
     0
 43
0.0
 10
1913.43314748738
 20
3090.723425254831
 10
1984.653903568229
 20
3090.723425254831
  0
LWPOLYLINE
  5
BA4
330
22
100
AcDbEntity
  8
PIPE
 62
     0
100
AcDbPolyline
 90
        5
 70
     0
 43
0.0
 10
1913.43314748738
 20
3090.723425254831
 10
1870.08138291643
 20
3090.723425254831
 10
1855.63079472611
 20
3096.40044211279
 10
1849.95377793706
 20
3107.75447582869
 10
1854.08251742001
 20
3127.882081052332
  0
LWPOLYLINE
  5
BAB
330
22
100
AcDbEntity
  8
PIPE
 62
     0
100
AcDbPolyline
 90
        2
 70
     0
 43
0.0
 10
1910.33659287517
 20
3190.84535893143
 10
1913.43314748738
 20
3090.723425254831
  0
LWPOLYLINE
  5
BAF
330
22
100
AcDbEntity
  8
PIPE
 62
     0
100
AcDbPolyline
 90
        2
 70
     0
 43
0.0
 10
1909.8205004398
 20
3246.06725018605
 10
1984.653903568229
 20
3245.551157744421
  0
LWPOLYLINE
  5
BB3
330
22
100
AcDbEntity
  8
PIPE
 62
     0
100
AcDbPolyline
 90
        2
 70
     0
 43
0.0
 10
1910.33659287517
 20
3190.84535893143
 10
1859.24344177369
 20
3190.84535893143
  0
LWPOLYLINE
  5
BB7
330
22
100
AcDbEntity
  8
PIPE
 62
     0
100
AcDbPolyline
 90
        2
 70
     0
 43
0.0
 10
1909.8205004398
 20
3246.06725018605
 10
1910.33659287517
 20
3190.84535893143
  0
LWPOLYLINE
  5
BBB
330
22
100
AcDbEntity
  8
PIPE
 62
     0
100
AcDbPolyline
 90
        2
 70
     0
 43
0.0
 10
1909.30440800443
 20
3286.83855307498
 10
1909.8205004398
 20
3246.06725018605
  0
LWPOLYLINE
  5
BBF
330
22
100
AcDbEntity
  8
PIPE
 62
     0
100
AcDbPolyline
 90
        2
 70
     0
 43
0.0
 10
2053.29419747223
 20
3291.483385049661
 10
1909.30440800443
 20
3286.83855307498
  0
LWPOLYLINE
  5
BC3
330
22
100
AcDbEntity
  8
PIPE
 62
     0
100
AcDbPolyline
 90
        2
 70
     0
 43
0.0
 10
1984.653903568229
 20
3245.551157744421
 10
2055.35856721371
 20
3247.09943506932
  0
LWPOLYLINE
  5
BC7
330
22
100
AcDbEntity
  8
PIPE
 62
     0
100
AcDbPolyline
 90
        2
 70
     0
 43
0.0
 10
1984.653903568229
 20
3090.723425254831
 10
1984.653903568229
 20
3245.551157744421
  0
LWPOLYLINE
  5
BCB
330
22
100
AcDbEntity
  8
PIPE
 62
     0
100
AcDbPolyline
 90
        6
 70
     0
 43
0.0
 10
2055.35856721371
 20
3247.09943506932
 10
2054.84247477834
 20
3197.55456067265
 10
2048.13327311855
 20
3151.6223333674
 10
2037.29533197581
 20
3102.07745897074
 10
2019.23209673792
 20
3090.2073328132
 10
1984.653903568229
 20
3090.723425254831
  0
LWPOLYLINE
  5
BD3
330
22
100
AcDbEntity
  8
PIPE
 62
     0
100
AcDbPolyline
 90
        2
 70
     0
 43
0.0
 10
2053.29419747223
 20
3291.483385049661
 10
2055.35856721371
 20
3247.09943506932
  0
LWPOLYLINE
  5
BD7
330
22
100
AcDbEntity
  8
PIPE
 62
     0
100
AcDbPolyline
 90
        2
 70
     0
 43
0.0
 10
2135.3530841867
 20
3291.48338898714
 10
2053.29419747223
 20
3291.483385049661
  0
LWPOLYLINE
  5
BDB
330
22
100
AcDbEntity
  8
PIPE
 62
     0
100
AcDbPolyline
 90
        2
 70
     0
 43
0.0
 10
1867.50111023047
 20
3590.30091269204
 10
1868.5332951012
 20
3418.4421296286
  0
LWPOLYLINE
  5
BDF
330
22
100
AcDbEntity
  8
PIPE
 62
     0
100
AcDbPolyline
 90
        2
 70
     0
 43
0.0
 10
1868.5332951012
 20
3418.4421296286
 10
1933.56094195763
 20
3417.92603718697
  0
LWPOLYLINE
  5
BE3
330
22
100
AcDbEntity
  8
PIPE
 62
     0
100
AcDbPolyline
 90
        2
 70
     0
 43
0.0
 10
1801.4412785033
 20
3416.8938523037
 10
1868.5332951012
 20
3418.4421296286
  0
LWPOLYLINE
  5
BE7
330
22
100
AcDbEntity
  8
PIPE
 62
     0
100
AcDbPolyline
 90
        2
 70
     0
 43
0.0
 10
1801.4412785033
 20
3589.78482025041
 10
1801.4412785033
 20
3416.8938523037
  0
LWPOLYLINE
  5
BEB
330
22
100
AcDbEntity
  8
PIPE
 62
     0
100
AcDbPolyline
 90
        2
 70
     0
 43
0.0
 10
1867.50111023047
 20
3590.30091269204
 10
1801.4412785033
 20
3589.78482025041
  0
LWPOLYLINE
  5
BEF
330
22
100
AcDbEntity
  8
PIPE
 62
     0
100
AcDbPolyline
 90
        2
 70
     0
 43
0.0
 10
1933.04483820203
 20
3591.84902021342
 10
1867.50111023047
 20
3590.30091269204
  0
LWPOLYLINE
  5
BF3
330
22
100
AcDbEntity
  8
PIPE
 62
     0
100
AcDbPolyline
 90
        2
 70
     0
 43
0.0
 10
1933.04483820203
 20
3591.84902021342
 10
1933.56094195763
 20
3417.92603718697
  0
LWPOLYLINE
  5
BF7
330
22
100
AcDbEntity
  8
PIPE
 62
     0
100
AcDbPolyline
 90
        2
 70
     0
 43
0.0
 10
1998.07248505845
 20
3591.33292777179
 10
1998.07249637869
 20
3418.4421296286
  0
LWPOLYLINE
  5
BFB
330
22
100
AcDbEntity
  8
PIPE
 62
     0
100
AcDbPolyline
 90
        2
 70
     0
 43
0.0
 10
2062.067947044139
 20
3591.33292777179
 10
2063.10014323511
 20
3421.02259183676
  0
LWPOLYLINE
  5
BFF
330
22
100
AcDbEntity
  8
PIPE
 62
     0
100
AcDbPolyline
 90
        2
 70
     0
 43
0.0
 10
2135.86917662207
 20
3418.4421296286
 10
2135.3530841867
 20
3291.48338898714
  0
LWPOLYLINE
  5
C03
330
22
100
AcDbEntity
  8
PIPE
 62
     0
100
AcDbPolyline
 90
        2
 70
     0
 43
0.0
 10
2134.8369804311
 20
3592.365112655051
 10
2135.86917662207
 20
3418.4421296286
  0
LWPOLYLINE
  5
C07
330
22
100
AcDbEntity
  8
PIPE
 62
     0
100
AcDbPolyline
 90
        2
 70
     0
 43
0.0
 10
1998.07248505845
 20
3591.33292777179
 10
1933.04483820203
 20
3591.84902021342
  0
LWPOLYLINE
  5
C0B
330
22
100
AcDbEntity
  8
PIPE
 62
     0
100
AcDbPolyline
 90
        2
 70
     0
 43
0.0
 10
2062.067947044139
 20
3591.33292777179
 10
1998.07248505845
 20
3591.33292777179
  0
LWPOLYLINE
  5
C0F
330
22
100
AcDbEntity
  8
PIPE
 62
     0
100
AcDbPolyline
 90
        2
 70
     0
 43
0.0
 10
2134.8369804311
 20
3592.365112655051
 10
2062.067947044139
 20
3591.33292777179
  0
LWPOLYLINE
  5
C13
330
22
100
AcDbEntity
  8
PIPE
 62
     0
100
AcDbPolyline
 90
        2
 70
     0
 43
0.0
 10
2360.36930627353
 20
3594.42959587002
 10
2134.8369804311
 20
3592.365112655051
  0
LWPOLYLINE
  5
C17
330
22
100
AcDbEntity
  8
PIPE
 62
     0
100
AcDbPolyline
 90
        2
 70
     0
 43
0.0
 10
2328.37163015921
 20
3739.45157319906
 10
2328.88772259458
 20
3658.42505986284
  0
LWPOLYLINE
  5
C1B
330
22
100
AcDbEntity
  8
PIPE
 62
     0
100
AcDbPolyline
 90
        2
 70
     0
 43
0.0
 10
2328.37163015921
 20
3739.45157319906
 10
2327.85553772384
 20
3839.57350687566
  0
LWPOLYLINE
  5
C1F
330
22
100
AcDbEntity
  8
PIPE
 62
     0
100
AcDbPolyline
 90
        2
 70
     0
 43
0.0
 10
2392.88318458027
 20
3737.90329587416
 10
2328.37163015921
 20
3739.45157319906
  0
LWPOLYLINE
  5
C23
330
22
100
AcDbEntity
  8
PIPE
 62
     0
100
AcDbPolyline
 90
        4
 70
     0
 43
0.0
 10
2392.88318458027
 20
3737.90329587416
 10
2395.03996789195
 20
3677.67263326202
 10
2409.71961076163
 20
3653.81821347139
 10
2426.84586077626
 20
3646.47839199735
  0
LWPOLYLINE
  5
C29
330
22
100
AcDbEntity
  8
PIPE
 62
     0
100
AcDbPolyline
 90
        2
 70
     0
 43
0.0
 10
2360.36930627353
 20
3594.42959587002
 10
2426.42913800069
 20
3594.94568831165
  0
LWPOLYLINE
  5
C2D
330
22
100
AcDbEntity
  8
PIPE
 62
     0
100
AcDbPolyline
 90
        2
 70
     0
 43
0.0
 10
2359.33712140279
 20
3434.95703140574
 10
2360.36930627353
 20
3594.42959587002
  0
LWPOLYLINE
  5
C31
330
22
100
AcDbEntity
  8
PIPE
 62
     0
100
AcDbPolyline
 90
        4
 70
     0
 43
0.0
 10
2359.33712140279
 20
3434.95703140574
 10
2351.07964243689
 20
3422.05472036494
 10
2331.46812989289
 20
3416.37770350699
 10
2325.27502066847
 20
3418.44207327352
  0
LWPOLYLINE
  5
C37
330
22
100
AcDbEntity
  8
PIPE
 62
     0
100
AcDbPolyline
 90
        8
 70
     0
 43
0.0
 10
2426.42913800069
 20
3594.94568831165
 10
2427.46132287143
 20
3519.59619183338
 10
2427.46132287143
 20
3479.34098138609
 10
2425.91304556532
 20
3441.15014070532
 10
2408.88199519816
 20
3434.95703140574
 10
2374.81989446384
 20
3434.95703140574
 10
2358.821028967421
 20
3435.98921628901
 10
2359.33712140279
 20
3434.95703140574
  0
LWPOLYLINE
  5
C41
330
22
100
AcDbEntity
  8
PIPE
 62
     0
100
AcDbPolyline
 90
        2
 70
     0
 43
0.0
 10
2426.84586077626
 20
3646.47839199735
 10
2426.42913800069
 20
3594.94568831165
  0
LWPOLYLINE
  5
C45
330
22
100
AcDbEntity
  8
PIPE
 62
     0
100
AcDbPolyline
 90
        6
 70
     0
 43
0.0
 10
2499.08864909308
 20
3540.424496641501
 10
2498.68199429661
 20
3490.17883012975
 10
2497.64980942587
 20
3465.40639293142
 10
2492.48888507219
 20
3457.1489138653
 10
2484.23140610629
 20
3459.21328363183
 10
2481.13485149408
 20
3464.37420804815
  0
LWPOLYLINE
  5
C4D
330
22
100
AcDbEntity
  8
PIPE
 62
     0
100
AcDbPolyline
 90
        5
 70
     0
 43
0.0
 10
2499.08864909308
 20
3540.424496641501
 10
2505.2734253364
 20
3538.759800950511
 10
2538.55725273631
 20
3538.42847358659
 10
2546.17739857547
 20
3545.55584672933
 10
2554.0694323135
 20
3544.33254315032
  0
LWPOLYLINE
  5
C54
330
22
100
AcDbEntity
  8
PIPE
 62
     0
100
AcDbPolyline
 90
        7
 70
     0
 43
0.0
 10
2426.84586077626
 20
3646.47839199735
 10
2461.09836080552
 20
3647.090043786861
 10
2492.29260190359
 20
3646.47839199735
 10
2497.79746797972
 20
3632.41040083878
 10
2499.632423338431
 20
3599.38120420561
 10
2499.0207715522
 20
3554.118971782371
 10
2499.08864909308
 20
3540.424496641501
  0
LWPOLYLINE
  5
C5D
330
22
100
AcDbEntity
  8
PIPE
 62
     0
100
AcDbPolyline
 90
       13
 70
     0
 43
0.0
 10
2983.448858213689
 20
3773.70195575593
 10
2941.24488496336
 20
3778.595170071961
 10
2906.380733147861
 20
3785.32333975649
 10
2868.45832240119
 20
3798.779679125561
 10
2838.48738487559
 20
3812.23601849463
 10
2806.06984020504
 20
3827.52731323221
 10
2792.00184912159
 20
3831.19722396923
 10
2758.36100087857
 20
3825.0807060742
 10
2688.63269724759
 20
3800.61463449407
 10
2650.09863471467
 20
3773.70195575593
 10
2621.96265254779
 20
3741.896062701761
 10
2600.5548400295
 20
3696.022178489021
 10
2580.98198286992
 20
3669.72115154039
  0
LWPOLYLINE
  5
C6C
330
22
100
AcDbEntity
  8
PIPE
 62
     0
100
AcDbPolyline
 90
        4
 70
     0
 43
0.0
 10
2983.448858213689
 20
3773.70195575593
 10
2982.225554641221
 20
3738.83780375425
 10
2975.49738499261
 20
3717.42999112164
 10
2964.48765284035
 20
3701.527044594551
  0
LWPOLYLINE
  5
C72
330
22
100
AcDbEntity
  8
PIPE
 62
     0
100
AcDbPolyline
 90
        2
 70
     0
 43
0.0
 10
3079.40479674158
 20
3777.59183001434
 10
2983.448858213689
 20
3773.70195575593
  0
LWPOLYLINE
  5
C76
330
22
100
AcDbEntity
  8
PIPE
 62
     0
100
AcDbPolyline
 90
        2
 70
     0
 43
0.0
 10
2999.96344827565
 20
3577.361746199971
 10
2865.400198216141
 20
3576.750013621121
  0
LWPOLYLINE
  5
C7A
330
22
100
AcDbEntity
  8
PIPE
 62
     0
100
AcDbPolyline
 90
        7
 70
     0
 43
0.0
 10
2999.96344827565
 20
3577.361746199971
 10
3090.48805555125
 20
3577.973317200129
 10
3096.60457341362
 20
3573.0801028841
 10
3094.15796626867
 20
3498.458584564711
 10
3100.27448413104
 20
3489.28380772216
 10
3108.83760913835
 20
3486.22554877465
 10
3155.32314489234
 20
3485.61389698514
  0
LWPOLYLINE
  5
C83
330
22
100
AcDbEntity
  8
PIPE
 62
     0
100
AcDbPolyline
 90
        9
 70
     0
 43
0.0
 10
3079.40479674158
 20
3777.59183001434
 10
3086.45102505014
 20
3760.3677154073
 10
3086.45102505014
 20
3732.57425774594
 10
3081.36208238285
 20
3700.47477143282
 10
3056.23541260943
 20
3677.6726396785
 10
3028.71108222878
 20
3656.26482704589
 10
3003.02170720683
 20
3626.90554114973
 10
2999.96344827565
 20
3601.2161659906
 10
2999.96344827565
 20
3577.361746199971
  0
LWPOLYLINE
  5
C8E
330
22
100
AcDbEntity
  8
PIPE
 62
     0
100
AcDbPolyline
 90
       12
 70
     0
 43
0.0
 10
1453.66944670099
 20
4771.16977496418
 10
1463.42741393561
 20
4798.52182179471
 10
1478.41672343452
 20
4822.02778441799
 10
1500.90068768287
 20
4856.0943969155
 10
1502.60401830775
 20
4870.743040289429
 10
1510.0986730572
 20
4885.39168366336
 10
1554.04460317899
 20
4888.798344913119
 10
1550.63794192924
 20
4954.546907033311
 10
1564.60525305322
 20
4967.83288590734
 10
1584.36388830178
 20
4980.43753253142
 10
1600.03453005063
 20
4986.228856656
 10
1615.19417687035
 20
4985.96475950094
  0
ENDSEC
  0
SECTION
  2
OBJECTS
  0
DICTIONARY
  5
C
330
0
100
AcDbDictionary
281
     1
  3
ACAD_COLOR
350
1B
  3
ACAD_GROUP
350
D
  3
ACAD_LAYOUT
350
19
  3
ACAD_MATERIAL
350
1A
  3
ACAD_MLINESTYLE
350
16
  3
ACAD_PLOTSETTINGS
350
18
  3
ACAD_PLOTSTYLENAME
350
E
  3
ACAD_TABLESTYLE
350
1C
  3
AcDbVariableDictionary
350
F87
  3
ADE_QUERY_LIBRARY
350
F84
  3
AEC_VARS
350
CC3
  3
ASE_INDEX_DICTIONARY
350
F80
  3
Autodesk_MAP
350
CC5
  3
IrdDscDictionary
350
F8F
  3
Root
350
1857
1001
ADE
1000
ADE02C004
1000
[Query]
1000
CaseSensitiveMatch=0
1000
SaveCurrQueryInSession=1
1000
MkSelSetWithQryObj=0
1000
ShowBlockAsInsPt=0
1000
CreateAssociativeHatchObjects=0
1000
ReferenceBoundaryForAreaLocation=1
1000
ShowImageAsBoundary=1
1000
DefaultJoinOperator=2
1000
ColorForAdd=red
1000
ColorForRemove=red
1000
BlockLocnForQuery=1
1000
TextLocnForQuery=1
1000
IncludeAllObjectsInGroups=0
1000
AlwaysUseLibraryDefinitions=0
1000
PreviewDefinitionsFrom=2
1000
[Save Back]
1000
RedefineBlockDefinitions=1
1000
RedefineLayerDefinitions=1
1000
RedefineTextStyleDefinitions=1
1000
RemoveUnusedGroups=1
1000
EraseSavedBackObjects=1
1000
RemoveLockAfterSave=1
1000
CreateHistoryFileOfChanges=0
1000
CreateBackupFileOfSourceDwg=1
1000
DontAddObjectsToSaveSet=0
1000
MarkObjectsForEditingWithoutPrompting=0
1000
[Coordinate Transformation]
1000
RestoreLastActiveDwgsOnStartup=1
1000
ActivateDwgsOnAttach=1
1000
AdjustSizesAndScalesForChangesInUnits=1
1000
AdjustRotationsForMapDistortions=1
1000
AdjustSizesAndScalesForMapDistortions=1
1000
AdjustElevations=1
1000
AdjustZeroRotationObjects=1
1000
ReconnectDbOnWSOpen=1
1000
NoOfSQLConditionsInHistory=10
  0
DICTIONARY
  5
156A
330
3D9
100
AcDbDictionary
280
     1
281
     1
  3
*A1
360
156B
  0
DICTIONARY
  5
F94
330
3DB
100
AcDbDictionary
280
     1
281
     1
  3
*A1
360
F95
  0
DICTIONARY
  5
1567
330
3DD
100
AcDbDictionary
280
     1
281
     1
  3
*A1
360
184B
  0
DICTIONARY
  5
1565
330
3DF
100
AcDbDictionary
280
     1
281
     1
  3
*A1
360
184C
  0
DICTIONARY
  5
1563
330
3E1
100
AcDbDictionary
280
     1
281
     1
  3
*A1
360
184D
  0
DICTIONARY
  5
1B
102
{ACAD_REACTORS
330
C
102
}
330
C
100
AcDbDictionary
281
     1
  0
DICTIONARY
  5
D
102
{ACAD_REACTORS
330
C
102
}
330
C
100
AcDbDictionary
281
     1
  0
DICTIONARY
  5
19
102
{ACAD_REACTORS
330
C
102
}
330
C
100
AcDbDictionary
281
     1
  3
Layout1
350
21
  3
Model
350
25
  0
DICTIONARY
  5
1A
102
{ACAD_REACTORS
330
C
102
}
330
C
100
AcDbDictionary
281
     1
  0
DICTIONARY
  5
16
102
{ACAD_REACTORS
330
C
102
}
330
C
100
AcDbDictionary
281
     1
  3
Standard
350
17
  0
DICTIONARY
  5
18
102
{ACAD_REACTORS
330
C
102
}
330
C
100
AcDbDictionary
281
     1
  0
ACDBDICTIONARYWDFLT
  5
E
102
{ACAD_REACTORS
330
C
102
}
330
C
100
AcDbDictionary
281
     1
  3
Normal
350
F
100
AcDbDictionaryWithDefault
340
F
  0
DICTIONARY
  5
1C
102
{ACAD_REACTORS
330
C
102
}
330
C
100
AcDbDictionary
281
     1
  3
Legend
350
CC9
  3
Standard
350
1D
  0
DICTIONARY
  5
F87
102
{ACAD_REACTORS
330
C
102
}
330
C
100
AcDbDictionary
281
     1
  3
CTABLESTYLE
350
F88
  0
DICTIONARY
  5
F84
102
{ACAD_REACTORS
330
C
102
}
330
C
100
AcDbDictionary
281
     1
  3
_CurrQry
350
1B30
  0
DICTIONARY
  5
CC3
102
{ACAD_REACTORS
330
C
102
}
330
C
100
AcDbDictionary
281
     1
  3
AEC_VARS_DWG_SETUP
350
187C
  0
DICTIONARY
  5
F80
102
{ACAD_REACTORS
330
C
102
}
330
C
100
AcDbDictionary
281
     1
  3
ASEBlockHierarchyIndexRecord
350
F82
1001
DCO15
1040
1839920359.074
  0
DICTIONARY
  5
CC5
102
{ACAD_REACTORS
330
C
102
}
330
C
100
AcDbDictionary
281
     1
  3
MAP_DISPLAY_MANAGEMENT_DICTIONARY
350
CC6
  3
MAP_DISPLAY_STYLELIBRARY_DICTIONARY
350
CC7
  0
IRD_DSC_DICT
  5
F8F
102
{ACAD_REACTORS
330
C
102
}
330
C
100
AcDbDictionary
281
     1
  3
*A1
350
F90
  3
*A2
350
F91
  3
*A3
350
F92
  3
*A4
350
F93
  3
*A5
350
155F
  3
*A6
350
184A
100
CIrdDscDict
1040
0.0
  0
IRD_OBJ_RECORD
  5
156B
102
{ACAD_REACTORS
330
156A
102
}
330
156A
100
CIrdBaseRecord
1070
   516
1071
        1
1004
000044000000
100
CIrdObjRecord
330
155F
  0
IRD_OBJ_RECORD
  5
F95
102
{ACAD_REACTORS
330
F94
102
}
330
F94
100
CIrdBaseRecord
1070
   516
1071
        1
1004
0000050000000200000003000000
100
CIrdObjRecord
330
F93
  0
IRD_OBJ_RECORD
  5
184B
102
{ACAD_REACTORS
330
1567
102
}
330
1567
100
CIrdBaseRecord
1070
   516
1071
        1
1004
00003C000000
100
CIrdObjRecord
330
184A
  0
IRD_OBJ_RECORD
  5
184C
102
{ACAD_REACTORS
330
1565
102
}
330
1565
100
CIrdBaseRecord
1070
   516
1071
        1
1004
00003C000000
100
CIrdObjRecord
330
184A
  0
IRD_OBJ_RECORD
  5
184D
102
{ACAD_REACTORS
330
1563
102
}
330
1563
100
CIrdBaseRecord
1070
   516
1071
        1
1004
00003C000000
100
CIrdObjRecord
330
184A
  0
LAYOUT
  5
21
102
{ACAD_REACTORS
330
19
102
}
330
19
100
AcDbPlotSettings
  1

  2
Microsoft XPS Document Writer
  4

  6

 40
0.0
 41
0.0
 42
0.0
 43
0.0
 44
0.0
 45
0.0
 46
0.0
 47
0.0
 48
0.0
 49
0.0
140
0.0
141
0.0
142
1.0
143
1.0
 70
   688
 72
     0
 73
     0
 74
     5
  7

 75
    16
147
1.0
 76
     0
 77
     2
 78
   300
148
0.0
149
0.0
100
AcDbLayout
  1
Layout1
 70
     1
 71
     1
 10
0.0
 20
0.0
 11
12.0
 21
9.0
 12
0.0
 22
0.0
 32
0.0
 14
1.000000000000000E+20
 24
1.000000000000000E+20
 34
1.000000000000000E+20
 15
-1.000000000000000E+20
 25
-1.000000000000000E+20
 35
-1.000000000000000E+20
146
0.0
 13
0.0
 23
0.0
 33
0.0
 16
1.0
 26
0.0
 36
0.0
 17
0.0
 27
1.0
 37
0.0
 76
     0
330
1E
  0
LAYOUT
  5
25
102
{ACAD_REACTORS
330
19
102
}
330
19
100
AcDbPlotSettings
  1

  2
Microsoft XPS Document Writer
  4

  6

 40
0.0
 41
0.0
 42
0.0
 43
0.0
 44
0.0
 45
0.0
 46
0.0
 47
0.0
 48
0.0
 49
0.0
140
0.0
141
0.0
142
1.0
143
1.0
 70
  1712
 72
     0
 73
     0
 74
     0
  7

 75
     0
147
1.0
 76
     0
 77
     2
 78
   300
148
0.0
149
0.0
100
AcDbLayout
  1
Model
 70
     1
 71
     0
 10
0.0
 20
0.0
 11
12.0
 21
9.0
 12
0.0
 22
0.0
 32
0.0
 14
0.0
 24
0.0
 34
0.0
 15
0.0
 25
0.0
 35
0.0
146
0.0
 13
0.0
 23
0.0
 33
0.0
 16
1.0
 26
0.0
 36
0.0
 17
0.0
 27
1.0
 37
0.0
 76
     0
330
22
  0
MLINESTYLE
  5
17
102
{ACAD_REACTORS
330
16
102
}
330
16
100
AcDbMlineStyle
  2
STANDARD
 70
     0
  3

 62
   256
 51
90.0
 52
90.0
 71
     2
 49
0.5
 62
   256
  6
BYLAYER
 49
-0.5
 62
   256
  6
BYLAYER
  0
ACDBPLACEHOLDER
  5
F
102
{ACAD_REACTORS
330
E
102
}
330
E
  0
TABLESTYLE
  5
CC9
102
{ACAD_REACTORS
330
1C
102
}
330
1C
100
AcDbTableStyle
  3

 70
     0
 71
     1
 40
0.06
 41
0.06
280
     0
281
     0
  7
Standard
140
0.4
170
     4
 62
     0
 63
     7
283
     0
274
    -2
284
     0
 64
     0
275
    -2
285
     0
 65
     0
276
    -2
286
     1
 66
     0
277
    -2
287
     1
 67
     0
278
    -2
288
     0
 68
     0
279
    -2
289
     1
 69
     0
  7
Standard
140
0.5
170
     5
 62
     0
 63
     7
283
     0
274
    -2
284
     1
 64
     0
275
    -2
285
     0
 65
     0
276
    -2
286
     1
 66
     0
277
    -2
287
     1
 67
     0
278
    -2
288
     0
 68
     0
279
    -2
289
     1
 69
     0
  7
Standard
140
0.4
170
     4
 62
     0
 63
     7
283
     0
274
    -2
284
     1
 64
     0
275
    -2
285
     0
 65
     0
276
    -2
286
     1
 66
     0
277
    -2
287
     1
 67
     0
278
    -2
288
     0
 68
     0
279
    -2
289
     1
 69
     0
  0
TABLESTYLE
  5
1D
102
{ACAD_REACTORS
330
1C
102
}
330
1C
100
AcDbTableStyle
  3
Standard
 70
     0
 71
     0
 40
0.06
 41
0.06
280
     0
281
     0
  7
Standard
140
0.18
170
     2
 62
     0
 63
     7
283
     0
274
    -2
284
     1
 64
     0
275
    -2
285
     1
 65
     0
276
    -2
286
     1
 66
     0
277
    -2
287
     1
 67
     0
278
    -2
288
     1
 68
     0
279
    -2
289
     1
 69
     0
  7
Standard
140
0.25
170
     5
 62
     0
 63
     7
283
     0
274
    -2
284
     1
 64
     0
275
    -2
285
     1
 65
     0
276
    -2
286
     1
 66
     0
277
    -2
287
     1
 67
     0
278
    -2
288
     1
 68
     0
279
    -2
289
     1
 69
     0
  7
Standard
140
0.18
170
     5
 62
     0
 63
     7
283
     0
274
    -2
284
     1
 64
     0
275
    -2
285
     1
 65
     0
276
    -2
286
     1
 66
     0
277
    -2
287
     1
 67
     0
278
    -2
288
     1
 68
     0
279
    -2
289
     1
 69
     0
  0
DICTIONARYVAR
  5
F88
102
{ACAD_REACTORS
330
F87
102
}
330
F87
100
DictionaryVariables
280
     0
  1
STANDARD
  0
XRECORD
  5
1B30
102
{ACAD_REACTORS
330
F84
102
}
330
F84
100
AcDbXrecord
280
     1
1000
ADE02C001
1070
     1
1070
     0
1002
{
1002
}
1002
{
1002
}
1002
{
1002
}
1000

  0
XRECORD
  5
F82
102
{ACAD_REACTORS
330
F80
102
}
330
F80
100
AcDbXrecord
280
     1
330
3D9
330
3DB
330
3DD
330
3DF
330
3E1
  0
DMMAPMANAGER
  5
CC6
102
{ACAD_REACTORS
330
CC5
102
}
330
CC5
100
AcDbDictionary
281
     1
  3
DisplayMap1
350
CC8
100
AcDbDictionaryWithDefault
340
CC8
100
AcMapDMMapManager
 70
     1
340
CC8
  0
DMSTYLELIBRARY
  5
CC7
102
{ACAD_REACTORS
330
CC5
102
}
330
CC5
100
AcMapDMStyleLibrary
 70
     1
 70
     1
360
CCD
  0
IRD_DSC_RECORD
  5
F90
102
{ACAD_REACTORS
330
F8F
102
}
330
F8F
100
CIrdBaseRecord
1070
   516
1071
        0
1004
0115000043006C0061007300730000004900720064000000000049007200640000005400680065002000620061007300650020007300750070006500720063006C006100730073000000490072006400200043006C0061007300730020005600200031002E0030003200000000000000
100
CIrdDscRecord
1071
     5377
1000
Class-_-Ird
1071
        0
  0
IRD_DSC_RECORD
  5
F91
102
{ACAD_REACTORS
330
F8F
102
}
330
F8F
100
CIrdBaseRecord
1070
   516
1071
        0
1004
0117000043006C006100730073004E0075006D0065007200690063000000490072006400000043006C006100730073000000490072006400000054006800650020006200610073006500200063006C00610073007300200066006F007200200074006800650020006E0075006D006500720069006300730000004900720064
1004
00200043006C0061007300730020005600200031002E0030003200000000000000
100
CIrdDscRecord
1071
     5889
1000
ClassNumeric-_-Ird
1071
        0
  0
IRD_DSC_RECORD
  5
F92
102
{ACAD_REACTORS
330
F8F
102
}
330
F8F
100
CIrdBaseRecord
1070
   516
1071
        0
1004
0116000043006C006100730073004C006F006E0067000000490072006400000043006C006100730073004E0075006D0065007200690063000000490072006400000054006800650020006C006F006E0067002000760061006C00750065000000490072006400200043006C0061007300730020005600200031002E00300032
1004
00000000000000
100
CIrdDscRecord
1071
     5633
1000
ClassLong-_-Ird
1071
        0
  0
IRD_DSC_RECORD
  5
F93
102
{ACAD_REACTORS
330
F8F
102
}
330
F8F
100
CIrdBaseRecord
1070
   516
1071
        0
1004
00300000540041004E004B005F00500052004F0050004500520054004900450053000000610064006500000043006C00610073007300000049007200640000000000310000000300008000004D0041005800000043006C006100730073004C006F006E00670000004900720064000000000006000000010005000000008000
1004
004D0049004E00000043006C006100730073004C006F006E006700000049007200640000000000060000000100020000000080000049004E004900000043006C006100730073004C006F006E006700000049007200640000000000060000000100030000000000
100
CIrdDscRecord
1071
    12288
1000
TANK_PROPERTIES-_-ade
1071
        0
  0
IRD_DSC_RECORD
  5
155F
102
{ACAD_REACTORS
330
F8F
102
}
330
F8F
100
CIrdBaseRecord
1070
   516
1071
        0
1004
003000005200450053004500520056004F00490052005F00500052004F0050004500520054004900450053000000610064006500000043006C006100730073000000490072006400000000003100000001000080000045004C00450056004100540049004F004E00000043006C006100730073004C006F006E006700000049
1004
007200640000000000060000000100440000000000
100
CIrdDscRecord
1071
    12288
1000
RESERVOIR_PROPERTIES-_-ade
1071
        0
  0
IRD_DSC_RECORD
  5
184A
102
{ACAD_REACTORS
330
F8F
102
}
330
F8F
100
CIrdBaseRecord
1070
   516
1071
        0
1004
00300000500055004D0050005F00500052004F0050004500520054004900450053000000610064006500000043006C006100730073000000490072006400000000003100000001000080000045004C004500000043006C006100730073004C006F006E0067000000490072006400000000000600000001003C0000000000
100
CIrdDscRecord
1071
    12288
1000
PUMP_PROPERTIES-_-ade
1071
        0
  0
DMMAP
  5
CC8
102
{ACAD_REACTORS
330
CC6
330
CCA
102
}
330
CC6
100
AcMapDMMap
 70
     1
  1
Default
 70
     1
330
0
100
AcMapDMMap
 70
     1
 90
        1
360
CCA
 90
        1
 40
1.797693134862314E+99
 70
     1
100
AcMapDMMap
 70
     2
 70
     0
 40
1.797693134862314E+99
290
     0
290
     1
 40
1.0
 40
3.0
  1
Legend
 90
        1
 40
1.797693134862314E+99
  1

 70
     0
 40
1.0
 70
     1
 90
        0
 90
        1
360
CCB
  0
DMSTYLECATEGORY
  5
CCD
102
{ACAD_REACTORS
330
CC7
102
}
330
CC7
100
AcMapDMStyleCategory
 70
     1
  1
Display Styles
 70
     0
  0
DMBASEELEMENT
  5
CCA
102
{ACAD_REACTORS
330
CC8
102
}
330
CC8
100
AcMapDMBaseElement
 70
     1
  1
Map Base
 70
     1
330
CC8
100
AcMapDMBaseElement
 70
     1
  1

 70
     2
  1

 70
     1
 40
1.797693134862314E+99
 70
     1
 70
     1
 70
     1
 70
     1
360
CCC
100
AcMapDMBaseElement
 70
     1
  0
DMDEFAULTSTYLE
  5
CCB
102
{ACAD_REACTORS
330
CC8
102
}
330
CC8
100
AcMapDMDefaultStyle
 70
     1
 90
        1
  1
Default
100
AcMapDMDefaultStyle
 70
     1
280
   100
 90
     0
  0
DMSTYLEREFERENCE
  5
CCC
330
CCA
100
AcMapDMStyleReference
 70
     1
 70
     0
340
CCB
330
CC8
  0
ENDSEC
  0
EOF
