  0
SECTION
  2
HEADER
  9
$ACADVER
  1
AC1015
  9
$ACADMAINTVER
 70
    20
  9
$DWGCODEPAGE
  3
ANSI_1252
  9
$INSBASE
 10
0.0
 20
0.0
 30
0.0
  9
$EXTMIN
 10
428311.3390333467
 20
2541327.873121507
 30
0.0
  9
$EXTMAX
 10
470323.1703144044
 20
2575118.304808448
 30
0.9987052829999999
  9
$LIMMIN
 10
0.0
 20
0.0
  9
$LIMMAX
 10
12.0
 20
9.0
  9
$ORTHOMODE
 70
     0
  9
$REGENMODE
 70
     1
  9
$FILLMODE
 70
     1
  9
$QTEXTMODE
 70
     0
  9
$MIRRTEXT
 70
     0
  9
$LTSCALE
 40
1.0
  9
$ATTMODE
 70
     1
  9
$TEXTSIZE
 40
0.2
  9
$TRACEWID
 40
0.05
  9
$TEXTSTYLE
  7
Standard
  9
$CLAYER
  8
0
  9
$CELTYPE
  6
ByLayer
  9
$CECOLOR
 62
   256
  9
$CELTSCALE
 40
1.0
  9
$DISPSILH
 70
     0
  9
$DIMSCALE
 40
1.0
  9
$DIMASZ
 40
0.18
  9
$DIMEXO
 40
0.0625
  9
$DIMDLI
 40
0.38
  9
$DIMRND
 40
0.0
  9
$DIMDLE
 40
0.0
  9
$DIMEXE
 40
0.18
  9
$DIMTP
 40
0.0
  9
$DIMTM
 40
0.0
  9
$DIMTXT
 40
0.18
  9
$DIMCEN
 40
0.09
  9
$DIMTSZ
 40
0.0
  9
$DIMTOL
 70
     0
  9
$DIMLIM
 70
     0
  9
$DIMTIH
 70
     1
  9
$DIMTOH
 70
     1
  9
$DIMSE1
 70
     0
  9
$DIMSE2
 70
     0
  9
$DIMTAD
 70
     0
  9
$DIMZIN
 70
     0
  9
$DIMBLK
  1

  9
$DIMASO
 70
     1
  9
$DIMSHO
 70
     1
  9
$DIMPOST
  1

  9
$DIMAPOST
  1

  9
$DIMALT
 70
     0
  9
$DIMALTD
 70
     2
  9
$DIMALTF
 40
25.4
  9
$DIMLFAC
 40
1.0
  9
$DIMTOFL
 70
     0
  9
$DIMTVP
 40
0.0
  9
$DIMTIX
 70
     0
  9
$DIMSOXD
 70
     0
  9
$DIMSAH
 70
     0
  9
$DIMBLK1
  1

  9
$DIMBLK2
  1

  9
$DIMSTYLE
  2
Standard
  9
$DIMCLRD
 70
     0
  9
$DIMCLRE
 70
     0
  9
$DIMCLRT
 70
     0
  9
$DIMTFAC
 40
1.0
  9
$DIMGAP
 40
0.09
  9
$DIMJUST
 70
     0
  9
$DIMSD1
 70
     0
  9
$DIMSD2
 70
     0
  9
$DIMTOLJ
 70
     1
  9
$DIMTZIN
 70
     0
  9
$DIMALTZ
 70
     0
  9
$DIMALTTZ
 70
     0
  9
$DIMUPT
 70
     0
  9
$DIMDEC
 70
     4
  9
$DIMTDEC
 70
     4
  9
$DIMALTU
 70
     2
  9
$DIMALTTD
 70
     2
  9
$DIMTXSTY
  7
Standard
  9
$DIMAUNIT
 70
     0
  9
$DIMADEC
 70
     0
  9
$DIMALTRND
 40
0.0
  9
$DIMAZIN
 70
     0
  9
$DIMDSEP
 70
    46
  9
$DIMATFIT
 70
     3
  9
$DIMFRAC
 70
     0
  9
$DIMLDRBLK
  1

  9
$DIMLUNIT
 70
     2
  9
$DIMLWD
 70
    -2
  9
$DIMLWE
 70
    -2
  9
$DIMTMOVE
 70
     0
  9
$LUNITS
 70
     2
  9
$LUPREC
 70
     3
  9
$SKETCHINC
 40
0.1
  9
$FILLETRAD
 40
0.0
  9
$AUNITS
 70
     0
  9
$AUPREC
 70
     0
  9
$MENU
  1
.
  9
$ELEVATION
 40
0.0
  9
$PELEVATION
 40
0.0
  9
$THICKNESS
 40
0.0
  9
$LIMCHECK
 70
     0
  9
$CHAMFERA
 40
0.0
  9
$CHAMFERB
 40
0.0
  9
$CHAMFERC
 40
0.0
  9
$CHAMFERD
 40
0.0
  9
$SKPOLY
 70
     0
  9
$TDCREATE
 40
2457505.544535776
  9
$TDUCREATE
 40
2457505.315369109
  9
$TDUPDATE
 40
2457535.499305764
  9
$TDUUPDATE
 40
2457535.270139097
  9
$TDINDWG
 40
0.0051665509
  9
$TDUSRTIMER
 40
0.0051663773
  9
$USRTIMER
 70
     1
  9
$ANGBASE
 50
0.0
  9
$ANGDIR
 70
     0
  9
$PDMODE
 70
     0
  9
$PDSIZE
 40
0.0
  9
$PLINEWID
 40
0.0
  9
$SPLFRAME
 70
     0
  9
$SPLINETYPE
 70
     6
  9
$SPLINESEGS
 70
     8
  9
$HANDSEED
  5
2D0
  9
$SURFTAB1
 70
     6
  9
$SURFTAB2
 70
     6
  9
$SURFTYPE
 70
     6
  9
$SURFU
 70
     6
  9
$SURFV
 70
     6
  9
$UCSBASE
  2

  9
$UCSNAME
  2

  9
$UCSORG
 10
0.0
 20
0.0
 30
0.0
  9
$UCSXDIR
 10
1.0
 20
0.0
 30
0.0
  9
$UCSYDIR
 10
0.0
 20
1.0
 30
0.0
  9
$UCSORTHOREF
  2

  9
$UCSORTHOVIEW
 70
     0
  9
$UCSORGTOP
 10
0.0
 20
0.0
 30
0.0
  9
$UCSORGBOTTOM
 10
0.0
 20
0.0
 30
0.0
  9
$UCSORGLEFT
 10
0.0
 20
0.0
 30
0.0
  9
$UCSORGRIGHT
 10
0.0
 20
0.0
 30
0.0
  9
$UCSORGFRONT
 10
0.0
 20
0.0
 30
0.0
  9
$UCSORGBACK
 10
0.0
 20
0.0
 30
0.0
  9
$PUCSBASE
  2

  9
$PUCSNAME
  2

  9
$PUCSORG
 10
0.0
 20
0.0
 30
0.0
  9
$PUCSXDIR
 10
1.0
 20
0.0
 30
0.0
  9
$PUCSYDIR
 10
0.0
 20
1.0
 30
0.0
  9
$PUCSORTHOREF
  2

  9
$PUCSORTHOVIEW
 70
     0
  9
$PUCSORGTOP
 10
0.0
 20
0.0
 30
0.0
  9
$PUCSORGBOTTOM
 10
0.0
 20
0.0
 30
0.0
  9
$PUCSORGLEFT
 10
0.0
 20
0.0
 30
0.0
  9
$PUCSORGRIGHT
 10
0.0
 20
0.0
 30
0.0
  9
$PUCSORGFRONT
 10
0.0
 20
0.0
 30
0.0
  9
$PUCSORGBACK
 10
0.0
 20
0.0
 30
0.0
  9
$USERI1
 70
     0
  9
$USERI2
 70
     0
  9
$USERI3
 70
     0
  9
$USERI4
 70
     0
  9
$USERI5
 70
     0
  9
$USERR1
 40
0.0
  9
$USERR2
 40
0.0
  9
$USERR3
 40
0.0
  9
$USERR4
 40
0.0
  9
$USERR5
 40
0.0
  9
$WORLDVIEW
 70
     1
  9
$SHADEDGE
 70
     3
  9
$SHADEDIF
 70
    70
  9
$TILEMODE
 70
     1
  9
$MAXACTVP
 70
    64
  9
$PINSBASE
 10
0.0
 20
0.0
 30
0.0
  9
$PLIMCHECK
 70
     0
  9
$PEXTMIN
 10
0.0
 20
0.0
 30
0.0
  9
$PEXTMAX
 10
0.0
 20
0.0
 30
0.0
  9
$PLIMMIN
 10
0.0
 20
0.0
  9
$PLIMMAX
 10
12.0
 20
9.0
  9
$UNITMODE
 70
     0
  9
$VISRETAIN
 70
     1
  9
$PLINEGEN
 70
     0
  9
$PSLTSCALE
 70
     1
  9
$TREEDEPTH
 70
  3020
  9
$CMLSTYLE
  2
Standard
  9
$CMLJUST
 70
     0
  9
$CMLSCALE
 40
1.0
  9
$PROXYGRAPHICS
 70
     1
  9
$MEASUREMENT
 70
     0
  9
$CELWEIGHT
370
    -1
  9
$ENDCAPS
280
     0
  9
$JOINSTYLE
280
     0
  9
$LWDISPLAY
290
     0
  9
$INSUNITS
 70
     6
  9
$HYPERLINKBASE
  1

  9
$STYLESHEET
  1

  9
$XEDIT
290
     1
  9
$CEPSNTYPE
380
     0
  9
$PSTYLEMODE
290
     1
  9
$FINGERPRINTGUID
  2
{640AE767-E9B3-444F-8EF4-C2FC46BFFF65}
  9
$VERSIONGUID
  2
{1C0EC3A7-4197-4AA3-B335-0B50DDA80D66}
  9
$EXTNAMES
290
     1
  9
$PSVPSCALE
 40
0.0
  9
$OLESTARTUP
290
     0
  0
ENDSEC
  0
SECTION
  2
CLASSES
  0
CLASS
  1
ACDBDICTIONARYWDFLT
  2
AcDbDictionaryWithDefault
  3
ObjectDBX Classes
 90
        0
280
     0
281
     0
  0
CLASS
  1
ACDBPLACEHOLDER
  2
AcDbPlaceHolder
  3
ObjectDBX Classes
 90
        0
280
     0
281
     0
  0
CLASS
  1
LAYOUT
  2
AcDbLayout
  3
ObjectDBX Classes
 90
        0
280
     0
281
     0
  0
CLASS
  1
DICTIONARYVAR
  2
AcDbDictionaryVar
  3
ObjectDBX Classes
 90
        0
280
     0
281
     0
  0
CLASS
  1
TABLESTYLE
  2
AcDbTableStyle
  3
ObjectDBX Classes
 90
     4095
280
     0
281
     0
  0
CLASS
  1
MATERIAL
  2
AcDbMaterial
  3
ObjectDBX Classes
 90
     1153
280
     0
281
     0
  0
CLASS
  1
VISUALSTYLE
  2
AcDbVisualStyle
  3
ObjectDBX Classes
 90
     4095
280
     0
281
     0
  0
CLASS
  1
SCALE
  2
AcDbScale
  3
ObjectDBX Classes
 90
     1153
280
     0
281
     0
  0
CLASS
  1
MLEADERSTYLE
  2
AcDbMLeaderStyle
  3
ACDB_MLEADERSTYLE_CLASS
 90
     4095
280
     0
281
     0
  0
CLASS
  1
CELLSTYLEMAP
  2
AcDbCellStyleMap
  3
ObjectDBX Classes
 90
     1152
280
     0
281
     0
  0
CLASS
  1
SORTENTSTABLE
  2
AcDbSortentsTable
  3
ObjectDBX Classes
 90
    32768
280
     0
281
     0
  0
CLASS
  1
EXACXREFPANELOBJECT
  2
ExAcXREFPanelObject
  3
EXAC_ESW
 90
     1025
280
     0
281
     0
  0
CLASS
  1
NPOCOLLECTION
  2
AcDbImpNonPersistentObjectsCollection
  3
ObjectDBX Classes
 90
     1153
280
     0
281
     0
  0
ENDSEC
  0
SECTION
  2
TABLES
  0
TABLE
  2
VPORT
  5
8
330
0
100
AcDbSymbolTable
 70
     1
  0
VPORT
  5
94
330
8
100
AcDbSymbolTableRecord
100
AcDbViewportTableRecord
  2
*Active
 70
     0
 10
0.0
 20
0.0
 11
1.0
 21
1.0
 12
434072.74562574
 22
2565991.065630293
 13
0.0
 23
0.0
 14
0.5
 24
0.5
 15
0.5
 25
0.5
 16
0.0
 26
0.0
 36
1.0
 17
0.0
 27
0.0
 37
0.0
 40
16982.4574655029
 41
1.3099173553719
 42
50.0
 43
0.0
 44
0.0
 50
0.0
 51
0.0
 71
     0
 72
  1000
 73
     1
 74
     3
 75
     0
 76
     0
 77
     0
 78
     0
281
     0
 65
     1
110
0.0
120
0.0
130
0.0
111
1.0
121
0.0
131
0.0
112
0.0
122
1.0
132
0.0
 79
     0
146
0.0
  0
ENDTAB
  0
TABLE
  2
LTYPE
  5
5
330
0
100
AcDbSymbolTable
 70
     1
  0
LTYPE
  5
14
330
5
100
AcDbSymbolTableRecord
100
AcDbLinetypeTableRecord
  2
ByBlock
 70
     0
  3

 72
    65
 73
     0
 40
0.0
  0
LTYPE
  5
15
330
5
100
AcDbSymbolTableRecord
100
AcDbLinetypeTableRecord
  2
ByLayer
 70
     0
  3

 72
    65
 73
     0
 40
0.0
  0
LTYPE
  5
16
330
5
100
AcDbSymbolTableRecord
100
AcDbLinetypeTableRecord
  2
Continuous
 70
     0
  3
Solid line
 72
    65
 73
     0
 40
0.0
  0
ENDTAB
  0
TABLE
  2
LAYER
  5
2
102
{ACAD_XDICTIONARY
360
21C
102
}
330
0
100
AcDbSymbolTable
 70
     1
  0
LAYER
  5
10
102
{ACAD_XDICTIONARY
360
E6
102
}
330
2
100
AcDbSymbolTableRecord
100
AcDbLayerTableRecord
  2
0
 70
     0
 62
     7
  6
Continuous
370
    -3
390
F
  0
ENDTAB
  0
TABLE
  2
STYLE
  5
3
330
0
100
AcDbSymbolTable
 70
     1
  0
STYLE
  5
11
330
3
100
AcDbSymbolTableRecord
100
AcDbTextStyleTableRecord
  2
Standard
 70
     0
 40
0.0
 41
1.0
 50
0.0
 71
     0
 42
0.2
  3
txt
  4

  0
ENDTAB
  0
TABLE
  2
VIEW
  5
6
330
0
100
AcDbSymbolTable
 70
     0
  0
ENDTAB
  0
TABLE
  2
UCS
  5
7
330
0
100
AcDbSymbolTable
 70
     0
  0
ENDTAB
  0
TABLE
  2
APPID
  5
9
330
0
100
AcDbSymbolTable
 70
    10
  0
APPID
  5
12
330
9
100
AcDbSymbolTableRecord
100
AcDbRegAppTableRecord
  2
ACAD
 70
     0
  0
APPID
  5
DD
330
9
100
AcDbSymbolTableRecord
100
AcDbRegAppTableRecord
  2
AcadAnnoPO
 70
     0
  0
APPID
  5
DE
330
9
100
AcDbSymbolTableRecord
100
AcDbRegAppTableRecord
  2
AcadAnnotative
 70
     0
  0
APPID
  5
DF
330
9
100
AcDbSymbolTableRecord
100
AcDbRegAppTableRecord
  2
ACAD_DSTYLE_DIMJAG
 70
     0
  0
APPID
  5
E0
330
9
100
AcDbSymbolTableRecord
100
AcDbRegAppTableRecord
  2
ACAD_DSTYLE_DIMTALN
 70
     0
  0
APPID
  5
107
330
9
100
AcDbSymbolTableRecord
100
AcDbRegAppTableRecord
  2
ACAD_MLEADERVER
 70
     0
  0
APPID
  5
14E
330
9
100
AcDbSymbolTableRecord
100
AcDbRegAppTableRecord
  2
ACAD_PSEXT
 70
     0
  0
APPID
  5
14F
330
9
100
AcDbSymbolTableRecord
100
AcDbRegAppTableRecord
  2
ACAD_NAV_VCDISPLAY
 70
     0
  0
APPID
  5
150
330
9
100
AcDbSymbolTableRecord
100
AcDbRegAppTableRecord
  2
AcAecLayerStandard
 70
     0
  0
APPID
  5
151
330
9
100
AcDbSymbolTableRecord
100
AcDbRegAppTableRecord
  2
ACAD_DSTYLE_DIMBREAK
 70
     0
  0
ENDTAB
  0
TABLE
  2
DIMSTYLE
  5
A
330
0
100
AcDbSymbolTable
 70
     1
100
AcDbDimStyleTable
 71
     1
340
27
  0
DIMSTYLE
105
27
330
A
100
AcDbSymbolTableRecord
100
AcDbDimStyleTableRecord
  2
Standard
 70
     0
340
11
  0
ENDTAB
  0
TABLE
  2
BLOCK_RECORD
  5
1
330
0
100
AcDbSymbolTable
 70
     2
  0
BLOCK_RECORD
  5
1F
330
1
100
AcDbSymbolTableRecord
100
AcDbBlockTableRecord
  2
*Model_Space
340
22
  0
BLOCK_RECORD
  5
58
330
1
100
AcDbSymbolTableRecord
100
AcDbBlockTableRecord
  2
*Paper_Space
340
59
  0
BLOCK_RECORD
  5
5D
330
1
100
AcDbSymbolTableRecord
100
AcDbBlockTableRecord
  2
*Paper_Space0
340
5E
  0
BLOCK_RECORD
  5
257
330
1
100
AcDbSymbolTableRecord
100
AcDbBlockTableRecord
  2
FLOWARROW
340
0
  0
ENDTAB
  0
ENDSEC
  0
SECTION
  2
BLOCKS
  0
BLOCK
  5
20
330
1F
100
AcDbEntity
  8
0
100
AcDbBlockBegin
  2
*Model_Space
 70
     0
 10
0.0
 20
0.0
 30
0.0
  3
*Model_Space
  1

  0
ENDBLK
  5
21
330
1F
100
AcDbEntity
  8
0
100
AcDbBlockEnd
  0
BLOCK
  5
5A
330
58
100
AcDbEntity
 67
     1
  8
0
100
AcDbBlockBegin
  2
*Paper_Space
 70
     0
 10
0.0
 20
0.0
 30
0.0
  3
*Paper_Space
  1

  0
ENDBLK
  5
5B
330
58
100
AcDbEntity
 67
     1
  8
0
100
AcDbBlockEnd
  0
BLOCK
  5
5F
330
5D
100
AcDbEntity
 67
     1
  8
0
100
AcDbBlockBegin
  2
*Paper_Space0
 70
     0
 10
0.0
 20
0.0
 30
0.0
  3
*Paper_Space0
  1

  0
ENDBLK
  5
60
330
5D
100
AcDbEntity
 67
     1
  8
0
100
AcDbBlockEnd
  0
BLOCK
  5
258
330
257
100
AcDbEntity
  8
0
100
AcDbBlockBegin
  2
FLOWARROW
 70
     0
 10
0.0
 20
0.0
 30
0.0
  3
FLOWARROW
  1

  0
LWPOLYLINE
  5
259
330
257
100
AcDbEntity
  8
0
 62
     0
100
AcDbPolyline
 90
        4
 70
     1
 43
0.0
 10
3.0
 20
0.0
 10
-3.0
 20
-3.0
 10
-0.6
 20
0.0
 10
-3.0
 20
3.0
  0
ENDBLK
  5
25A
330
257
100
AcDbEntity
  8
0
100
AcDbBlockEnd
  0
ENDSEC
  0
SECTION
  2
ENTITIES
  0
LWPOLYLINE
  5
234
330
1F
100
AcDbEntity
  8
0
 48
1.05
100
AcDbPolyline
 90
      304
 70
   128
 43
0.0
 10
433916.4023819893
 20
2570371.415950593
 10
433998.3222982056
 20
2570293.743529196
 10
434137.1140700972
 20
2570175.712422834
 10
434215.0221511135
 20
2570109.455251844
 10
434245.1394479552
 20
2570083.841906742
 10
434379.2942192994
 20
2569978.871474102
 10
434469.2515971541
 20
2569898.106269376
 10
434497.028117075
 20
2569876.191616342
 10
434561.5285738042
 20
2569825.303133837
 10
434613.0705115965
 20
2569782.453615746
 10
434664.2103863286
 20
2569740.916626778
 10
434703.5565818791
 20
2569717.53768834
 10
434790.0754333393
 20
2569666.129442304
 10
434939.1951176542
 20
2569581.700203624
 10
435054.3777694531
 20
2569520.222031671
 10
435271.2708094165
 20
2569389.921470129
 10
435473.8702293161
 20
2569288.738368256
 10
435692.5168742582
 20
2569189.287338395
 10
435858.6448505481
 20
2569112.615772422
 10
436053.9537204796
 20
2569018.730966647
 10
436081.2969965627
 20
2569005.587080551
 10
436121.3620685531
 20
2568987.396316097
 10
436199.6499156633
 20
2568951.851252972
 10
436259.6908786337
 20
2568924.59083009
 10
436358.4743509506
 20
2568878.000531962
 10
436500.6709714484
 20
2568812.649789003
 10
436785.7694817918
 20
2568709.268107337
 10
436847.8873114304
 20
2568689.284029302
 10
436884.9919969647
 20
2568659.103084085
 10
436899.3038058682
 20
2568640.137211143
 10
436909.8264629412
 20
2568625.138548308
 10
436911.4012264375
 20
2568623.296501
 10
436912.7487790867
 20
2568621.720228917
 10
436917.8365979504
 20
2568612.754277041
 10
436955.6843939856
 20
2568546.057432146
 10
437032.1832412372
 20
2568435.571838167
 10
437139.3462985149
 20
2568267.311105199
 10
437159.7524763621
 20
2568238.961536787
 10
437279.2719258772
 20
2568139.004522096
 10
437429.1451707345
 20
2568024.856615335
 10
437452.6672428069
 20
2568005.661028785
 10
437616.067813705
 20
2567872.315253691
 10
437713.910610324
 20
2567799.239758969
 10
437865.4017772315
 20
2567676.492576291
 10
438036.8835190288
 20
2567537.54783703
 10
438093.1844156725
 20
2567502.894120823
 10
438274.7418123956
 20
2567391.143884567
 10
438354.308804301
 20
2567380.600258502
 10
438354.3937045596
 20
2567380.798585954
 10
438354.3937045596
 20
2567380.798585954
 10
438354.3937045596
 20
2567380.798585954
 10
438369.5694464521
 20
2567380.589097965
 10
438441.2071276004
 20
2567383.745500706
 10
438455.8857414707
 20
2567383.589380703
 10
438508.9334276131
 20
2567383.025171854
 10
438567.9533650904
 20
2567381.024020124
 10
438726.6548238804
 20
2567383.415924598
 10
438937.8903408552
 20
2567382.087758073
 10
439133.2611942153
 20
2567379.952254102
 10
439348.1022081629
 20
2567379.045575587
 10
439548.0257488244
 20
2567380.387209161
 10
439754.7140381431
 20
2567381.259150605
 10
439873.8282505248
 20
2567372.597923828
 10
439893.0897142707
 20
2567364.983710664
 10
439944.8219773065
 20
2567344.533528276
 10
439967.7941266218
 20
2567328.576534647
 10
440025.1104272864
 20
2567308.581631514
 10
440036.3884035964
 20
2567303.181524874
 10
440154.1727516021
 20
2567246.784177779
 10
440276.0861296584
 20
2567197.244642214
 10
440388.7297113985
 20
2567146.308175634
 10
440523.0212056409
 20
2567089.906028081
 10
440601.2434301254
 20
2567057.76203443
 10
440640.8713207222
 20
2567039.829396886
 10
440732.6600990804
 20
2567003.529542365
 10
440797.9691614023
 20
2567003.065695447
 10
440813.7552707873
 20
2567000.994167374
 10
440904.9167011214
 20
2567010.574683091
 10
440962.5234237098
 20
2567014.884624992
 10
441107.2881018777
 20
2567026.674962053
 10
441290.008586974
 20
2567035.780565244
 10
441312.5554003785
 20
2567041.160105638
 10
441338.8827765891
 20
2567043.708588441
 10
441466.8605769873
 20
2567056.096802061
 10
441689.1235298105
 20
2567108.756860494
 10
441755.0400407207
 20
2567132.554075608
 10
441787.0610786478
 20
2567137.787692272
 10
441803.6013912664
 20
2567140.491091704
 10
441887.1591746588
 20
2567137.870905472
 10
441946.1310581715
 20
2567136.650689195
 10
441983.0481941999
 20
2567175.751434672
 10
442113.3888334892
 20
2567313.804209014
 10
442315.1824156357
 20
2567526.259332588
 10
442403.1477542769
 20
2567624.634602725
 10
442458.7434011093
 20
2567686.810384572
 10
442497.1658339853
 20
2567729.78082868
 10
442563.8161793984
 20
2567796.262508682
 10
442618.22557628
 20
2567850.534874331
 10
442671.6255589465
 20
2567906.572412513
 10
442709.0687555726
 20
2567926.065344742
 10
442709.9234564377
 20
2567926.346542614
 10
442901.9413426983
 20
2568003.651578796
 10
442935.5814072585
 20
2568017.195083245
 10
442972.4682439447
 20
2568032.045932484
 10
443175.011647291
 20
2568111.749028064
 10
443242.5233336306
 20
2568139.793771318
 10
443357.4826552287
 20
2568202.970531535
 10
443588.5959451236
 20
2568344.866908381
 10
443657.8175319534
 20
2568388.53546016
 10
443681.4951681137
 20
2568394.288379112
 10
443683.5350752143
 20
2568395.088823863
 10
443683.5350752143
 20
2568395.088823863
 10
443693.8742612355
 20
2568394.402853564
 10
443694.6431749944
 20
2568393.942444856
 10
443695.7711004131
 20
2568393.379364526
 10
443755.7097932724
 20
2568364.287206017
 10
443781.1915417202
 20
2568351.919366429
 10
443843.4011743564
 20
2568320.880478982
 10
444201.2052082314
 20
2568163.411082698
 10
444243.1498879089
 20
2568140.367627277
 10
444247.2444252156
 20
2568138.815358787
 10
444249.4156735679
 20
2568138.184119656
 10
444385.7440772954
 20
2568063.526106932
 10
444438.8069757495
 20
2568034.417206293
 10
444442.52753943
 20
2568032.180147369
 10
444446.5595536589
 20
2568029.755804125
 10
444450.3456356576
 20
2568027.685914608
 10
444453.6837286083
 20
2568025.084693516
 10
444455.1376247495
 20
2568024.210478411
 10
444456.159702341
 20
2568023.18621319
 10
444472.8298039339
 20
2568014.829217036
 10
444492.2108355385
 20
2568005.113209356
 10
444508.6930277965
 20
2567999.466793285
 10
444510.8054177846
 20
2567998.759073701
 10
444514.2752049997
 20
2567997.366280319
 10
444603.1608544358
 20
2568000.617574831
 10
444662.8202288289
 20
2568008.595720568
 10
444665.8168761384
 20
2568008.957369896
 10
444704.2498880778
 20
2568013.024411094
 10
444706.415837012
 20
2568013.017300548
 10
444803.3680047643
 20
2568011.144606284
 10
444826.45021345
 20
2568013.783618377
 10
444828.6501989572
 20
2568013.776383562
 10
444830.598368119
 20
2568013.769962001
 10
444831.5193706783
 20
2568013.766939625
 10
444845.5392977082
 20
2568012.94760418
 10
444847.7350439996
 20
2568012.940403603
 10
444848.2326136839
 20
2568012.938765647
 10
444848.2828653462
 20
2568012.921937287
 10
444859.3314873508
 20
2568009.956068296
 10
444860.0355256981
 20
2568009.603141693
 10
444862.6502337936
 20
2568008.850952811
 10
444878.3427946009
 20
2567999.180840153
 10
444880.6653264692
 20
2567998.512111054
 10
444880.9001803021
 20
2567998.335862773
 10
444882.5700498407
 20
2567997.08260887
 10
444904.6341312807
 20
2567981.585658244
 10
444905.9701613829
 20
2567980.516267537
 10
444906.3955664795
 20
2567980.090785109
 10
444907.8762259554
 20
2567978.609722494
 10
444932.4340345785
 20
2567963.037044301
 10
444937.0535072989
 20
2567960.719999965
 10
444937.6782364129
 20
2567960.718008612
 10
444971.8667847585
 20
2567942.164167751
 10
444972.8879146471
 20
2567941.141423527
 10
444975.7618156414
 20
2567939.41458254
 10
445053.1724276159
 20
2567892.384847983
 10
445149.0481417508
 20
2567829.196622304
 10
445174.5359698256
 20
2567812.549637785
 10
445294.9099915616
 20
2567733.930299587
 10
445391.0640344759
 20
2567671.940786918
 10
445396.0757380058
 20
2567669.153207306
 10
445473.5320851329
 20
2567620.423794068
 10
445479.4691004944
 20
2567620.411290326
 10
445545.5085094594
 20
2567595.414187853
 10
445658.2925753434
 20
2567553.741359645
 10
445661.6346286899
 20
2567552.620659249
 10
445798.6508368171
 20
2567503.587586882
 10
445800.3468855613
 20
2567503.018930149
 10
445967.7926919619
 20
2567445.58860242
 10
445983.9761451623
 20
2567440.038148851
 10
446234.6915819015
 20
2567350.631532279
 10
446296.7429416109
 20
2567329.038180631
 10
446345.944566385
 20
2567311.916656239
 10
446346.9183070364
 20
2567311.914171163
 10
446349.8197487605
 20
2567310.821182201
 10
446351.0476139851
 20
2567310.358638956
 10
446527.6325707685
 20
2567243.83953422
 10
446644.947425868
 20
2567185.295580409
 10
446810.685476008
 20
2567103.861981478
 10
446969.2139569677
 20
2567030.883742947
 10
447126.8864157084
 20
2566944.300883124
 10
447141.3806033178
 20
2566939.20556138
 10
447232.7408032708
 20
2566892.701351888
 10
447241.0930636534
 20
2566888.054092329
 10
447243.1874302125
 20
2566888.047180415
 10
447338.2164462289
 20
2566833.466250463
 10
447342.9419205388
 20
2566830.086562826
 10
447421.4997207742
 20
2566776.679055565
 10
447478.0968224548
 20
2566742.568689795
 10
447546.7314214212
 20
2566701.203979581
 10
447551.7080183275
 20
2566698.21482546
 10
447554.8794174392
 20
2566697.41610943
 10
447568.1874669262
 20
2566689.842012817
 10
447627.1498279632
 20
2566656.284592673
 10
447821.8934070886
 20
2566597.032377812
 10
447922.4407176526
 20
2566565.327217692
 10
447927.1544247345
 20
2566563.745157063
 10
447931.5829256395
 20
2566562.468965141
 10
447936.5378374454
 20
2566559.489841213
 10
447939.1156266674
 20
2566559.481353915
 10
447997.3119288978
 20
2566540.193699018
 10
448004.7235951785
 20
2566535.466794022
 10
448009.7082886625
 20
2566532.137103735
 10
448014.3081764899
 20
2566529.828947872
 10
448016.321417868
 20
2566528.484127755
 10
448020.66545878
 20
2566525.871163882
 10
448054.7257731372
 20
2566509.158029
 10
448072.4137394511
 20
2566495.869044284
 10
448075.3615753346
 20
2566493.654378054
 10
448079.7794231486
 20
2566490.114594862
 10
448109.2562320877
 20
2566474.928724987
 10
448112.9763133477
 20
2566473.433652299
 10
448120.5677263336
 20
2566469.280555359
 10
448125.2849731498
 20
2566466.128593394
 10
448128.1180781883
 20
2566464.707293758
 10
448131.8909312775
 20
2566461.871955789
 10
448313.1576999638
 20
2566411.887723436
 10
448315.2383106054
 20
2566410.49192205
 10
448319.1963582295
 20
2566409.150833487
 10
448323.0276522677
 20
2566408.361863263
 10
448349.1483241776
 20
2566399.511311829
 10
448353.1864434168
 20
2566399.485516728
 10
448399.3503195573
 20
2566367.613267447
 10
448404.9759603595
 20
2566362.782271144
 10
448500.1886380072
 20
2566308.532360788
 10
448571.4833696711
 20
2566267.910988289
 10
448669.7789021157
 20
2566212.534626171
 10
448672.9357878139
 20
2566210.00437005
 10
448678.1229757442
 20
2566205.67397557
 10
448740.9460121467
 20
2566171.846944174
 10
448776.0698170887
 20
2566149.434901934
 10
448809.826788285
 20
2566136.453787862
 10
448815.6332218125
 20
2566137.875949977
 10
448932.862583048
 20
2566137.221713001
 10
449086.781752729
 20
2566145.182505318
 10
449222.7916750784
 20
2566145.829652393
 10
449286.6325470401
 20
2566103.406030325
 10
449342.5721632642
 20
2566078.509656112
 10
449425.235865426
 20
2566044.736929125
 10
449508.67057722
 20
2565995.916988879
 10
449552.0956238731
 20
2565968.056263551
 10
449599.3119988842
 20
2565931.52376743
 10
449705.2461735885
 20
2565848.229676273
 10
449788.3559143803
 20
2565777.106125251
 10
449879.3350510076
 20
2565701.678002402
 10
449959.3097774261
 20
2565626.212303271
 10
450068.0285075797
 20
2565506.769829094
 10
450098.5056899923
 20
2565473.448017489
 10
450105.438404704
 20
2565463.465251978
 10
450129.4798868789
 20
2565434.130701377
 10
450153.8144801538
 20
2565413.480446998
 10
450165.2266971098
 20
2565405.535150985
 10
450215.7565019461
 20
2565373.144396137
 10
450267.3886593974
 20
2565337.213120524
 10
450294.7563153585
 20
2565321.385155633
 10
450310.9984934833
 20
2565303.695077224
 10
450434.3600346726
 20
2565153.172842919
 10
450495.9261096195
 20
2565087.681559014
 10
450591.5313040413
 20
2564977.378471581
 10
450648.2419298978
 20
2564930.454045992
 10
450736.7678540582
 20
2564861.209309057
 10
450763.6703554477
 20
2564843.828191188
 10
450896.6408431306
 20
2564756.271279626
 10
450929.6222138535
 20
2564734.218177396
 10
451009.8773074114
 20
2564677.682573969
 10
451070.9654838257
 20
2564633.100403274
 10
451114.3268106745
 20
2564601.51127577
 10
451134.0863219984
 20
2564584.543497
 10
451203.7575560564
 20
2564512.321883524
 10
451226.2379030253
 20
2564487.70106871
 10
451226.2379030253
 20
2564487.70106871
 10
451246.8640036878
 20
2564465.764870467
 10
451246.8640036878
 20
2564465.764870467
 10
451246.8640036878
 20
2564465.764870467
 10
451310.0123183889
 20
2564404.276736145
 10
451320.8361057296
 20
2564393.589804881
 10
451357.0046337417
 20
2564340.040320981
 10
451395.326671303
 20
2564269.890930287
 10
451415.9823110039
 20
2564216.456640784
 10
451520.192060536
 20
2563995.041252206
 10
451627.8494141585
 20
2563688.742007117
 10
451753.6163816855
 20
2563364.032451312
 10
451898.5344173223
 20
2562993.10990054
 10
452061.4392163101
 20
2562619.348372694
 10
452110.0548429199
 20
2562504.505572064
 10
452129.0914232161
 20
2562440.367070264
 10
452143.5556840054
 20
2562360.23203342
 10
452151.6573424429
 20
2562282.212684959
 10
452158.4060479776
 20
2562249.6626868
 10
452165.327635329
 20
2562227.992915177
 10
452165.327635329
 20
2562227.992915177
 10
452165.327635329
 20
2562227.992915177
 10
452165.327635329
 20
2562227.992915177
  0
LWPOLYLINE
  5
235
330
1F
100
AcDbEntity
  8
0
 48
1.05
100
AcDbPolyline
 90
       26
 70
   128
 43
0.0
 10
432117.9990333468
 20
2570572.000217909
 10
432286.61398658
 20
2570567.467356749
 10
432293.2551051668
 20
2570597.415236102
 10
432298.6721326443
 20
2570632.400066175
 10
432299.6187147789
 20
2570665.353249492
 10
432304.07924192
 20
2570688.399918708
 10
432704.0681020018
 20
2570925.193715459
 10
432706.7409612427
 20
2570927.271557167
 10
432771.6011689298
 20
2570973.042570084
 10
432809.1468658973
 20
2571001.174454239
 10
432829.3843418774
 20
2571020.420023657
 10
432886.1785973526
 20
2571053.840613017
 10
432891.9291516716
 20
2571058.09248784
 10
432954.2651390872
 20
2571091.919095274
 10
432997.8073099013
 20
2571129.848241604
 10
433075.5004378946
 20
2571161.920797885
 10
433079.6889542146
 20
2571161.903602563
 10
433134.4785347233
 20
2571190.413620148
 10
433165.8325710139
 20
2571213.596486371
 10
433206.6830882411
 20
2571223.224161776
 10
433277.6776088651
 20
2571244.133544461
 10
433446.0314950997
 20
2571273.746723896
 10
433906.4474328194
 20
2571137.549901195
 10
433929.6265641782
 20
2571131.374709386
 10
433978.4242956101
 20
2571123.865298014
 10
434003.4276971397
 20
2571113.160798456
  0
LWPOLYLINE
  5
236
330
1F
100
AcDbEntity
  8
0
 48
1.05
100
AcDbPolyline
 90
       68
 70
   128
 43
0.0
 10
442963.6790333468
 20
2564683.230217909
 10
442963.6790333468
 20
2564683.230217909
 10
442954.7335478683
 20
2564716.802153869
 10
442953.6646585723
 20
2564750.402537361
 10
442949.3244783659
 20
2564781.698501966
 10
442938.3706842672
 20
2564834.614376143
 10
442929.1152754109
 20
2564871.582451101
 10
442922.7908332212
 20
2564896.871777301
 10
442900.3641849646
 20
2565215.200996982
 10
442902.3840290983
 20
2565259.858429055
 10
442903.3603494884
 20
2565316.119406666
 10
442855.8851120278
 20
2565315.216980355
 10
442810.5910061689
 20
2565314.530248638
 10
442752.6962331944
 20
2565326.951827746
 10
442703.8921997833
 20
2565344.371643259
 10
442682.3643908018
 20
2565349.870699655
 10
442618.0581595793
 20
2565355.85994993
 10
442585.0852485993
 20
2565364.748033346
 10
442551.7640219916
 20
2565364.863917943
 10
442533.255401342
 20
2565383.178101094
 10
442511.7539230284
 20
2565418.315364318
 10
442490.5648363052
 20
2565457.234545383
 10
442476.8710502076
 20
2565492.804431822
 10
442451.3408385638
 20
2565534.397783046
 10
442431.9507260118
 20
2565549.678903564
 10
442401.7207470197
 20
2565566.286036673
 10
442391.4995662034
 20
2565574.601294529
 10
442385.1038831638
 20
2565585.515988644
 10
442373.308033657
 20
2565613.714933098
 10
442358.9194518582
 20
2565628.797269115
 10
442335.2470935813
 20
2565655.799401708
 10
442315.2478251782
 20
2565683.93559998
 10
442286.3481004415
 20
2565716.490876854
 10
442255.9897792591
 20
2565751.529564012
 10
442230.4495278844
 20
2565771.375047663
 10
442184.640245074
 20
2565801.765290207
 10
442161.7369327842
 20
2565829.287363109
 10
442158.8904642832
 20
2565840.586958647
 10
442159.7875346342
 20
2565867.468799245
 10
442153.9090995127
 20
2565888.317596953
 10
442113.7477036609
 20
2565940.604523218
 10
442087.7047823501
 20
2565970.93991569
 10
442050.6542659802
 20
2565996.626744527
 10
442020.0168235353
 20
2566020.628344844
 10
442009.6522163247
 20
2566030.484216714
 10
441981.846069859
 20
2566071.431900777
 10
441972.9474624487
 20
2566088.02717158
 10
441961.5096003751
 20
2566131.161060225
 10
441956.7079738778
 20
2566151.566788517
 10
441943.8464367668
 20
2566189.797802904
 10
441934.6553329548
 20
2566224.925033142
 10
441933.9031905122
 20
2566227.799626054
 10
441923.6119161708
 20
2566251.76807735
 10
441905.6767601815
 20
2566289.114295727
 10
441887.9544760229
 20
2566329.034988539
 10
441871.8810440004
 20
2566354.792218591
 10
441861.7447932279
 20
2566378.867789499
 10
441848.0278132022
 20
2566411.804345864
 10
441828.840794429
 20
2566448.139355896
 10
441811.241765468
 20
2566475.467242205
 10
441794.136698464
 20
2566504.326236505
 10
441788.9169305334
 20
2566513.635629567
 10
441788.3483237857
 20
2566522.766772558
 10
441788.7433455685
 20
2566524.91574683
 10
441825.2588198263
 20
2566727.967135764
 10
441875.5455124116
 20
2567007.596059717
 10
441879.191988484
 20
2567027.872998366
 10
441787.0610786479
 20
2567137.787692272
  0
LWPOLYLINE
  5
237
330
1F
100
AcDbEntity
  8
0
 48
1.05
100
AcDbPolyline
 90
       34
 70
   128
 43
0.0
 10
438354.308804301
 20
2567380.600258502
 10
438348.6734638207
 20
2567367.436073411
 10
438340.2513033346
 20
2567347.769934678
 10
438280.195828551
 20
2567231.914856392
 10
438280.195828551
 20
2567231.914856392
 10
438174.7035398425
 20
2567045.552280957
 10
438173.8682029337
 20
2567043.581508496
 10
438164.458382453
 20
2567021.381344714
 10
438129.7749801155
 20
2566963.470632109
 10
438129.707024344
 20
2566961.679912871
 10
438129.9683483901
 20
2566859.504814963
 10
438151.6058118565
 20
2566794.897167024
 10
438170.7557889174
 20
2566747.755560897
 10
438170.7199538269
 20
2566739.005363267
 10
438170.676049344
 20
2566728.285203623
 10
438169.6280734776
 20
2566718.276630411
 10
438160.4877271785
 20
2566707.876105888
 10
438142.8270036407
 20
2566670.325161239
 10
438129.1317322228
 20
2566612.069098442
 10
437973.3403965127
 20
2566337.886358705
 10
437939.4264375894
 20
2566296.373517721
 10
437943.0291077788
 20
2566290.681862093
 10
437953.2592878347
 20
2566283.098469607
 10
437961.0578799201
 20
2566266.418804296
 10
437968.8230682066
 20
2566233.215129914
 10
437972.4803419178
 20
2566212.81241331
 10
437981.6877602617
 20
2566193.119615359
 10
437994.368842487
 20
2566162.140652636
 10
438008.7147571018
 20
2566152.562912815
 10
438040.5782272723
 20
2566132.451109617
 10
438068.8321235535
 20
2566102.198684101
 10
438091.4105609682
 20
2566077.595465408
 10
438091.730291672
 20
2566077.203635068
 10
438271.9990333469
 20
2565917.000217909
  0
LWPOLYLINE
  5
238
330
1F
100
AcDbEntity
  8
0
 48
1.05
100
AcDbPolyline
 90
      171
 70
   128
 43
0.0
 10
430839.9990333469
 20
2573158.000217909
 10
430868.7592103384
 20
2573184.541533239
 10
430911.5639241841
 20
2573192.504077124
 10
430969.6454640239
 20
2573210.40999124
 10
431007.3990664014
 20
2573220.525091715
 10
431023.7530855128
 20
2573224.906727798
 10
431066.5108191471
 20
2573255.156394925
 10
431103.9136144038
 20
2573282.666348819
 10
431147.7867178229
 20
2573354.725217998
 10
431171.5516650481
 20
2573424.387315754
 10
431199.672032064
 20
2573510.916132649
 10
431216.722520586
 20
2573567.289281227
 10
431256.6931737374
 20
2573602.299101164
 10
431267.1483583693
 20
2573610.371617606
 10
431283.1969026503
 20
2573622.762803621
 10
431322.2296151679
 20
2573652.900213589
 10
431385.8214774428
 20
2573690.992235152
 10
431411.4610111121
 20
2573701.266602295
 10
431429.2094496548
 20
2573706.346220305
 10
431496.3040515734
 20
2573720.696900049
 10
431541.8364682254
 20
2573728.306477207
 10
431632.5565368162
 20
2573743.468011173
 10
431699.9498957723
 20
2573758.740679117
 10
431719.98762387
 20
2573760.295381966
 10
431775.2733939672
 20
2573763.938184471
 10
431825.3125964544
 20
2573766.401443927
 10
431861.6366425685
 20
2573768.242439227
 10
431894.0482220755
 20
2573771.587705928
 10
431902.7813419546
 20
2573773.917490272
 10
431913.242742372
 20
2573773.446809784
 10
431928.165393733
 20
2573776.713493635
 10
431961.4748985825
 20
2573782.748773483
 10
432003.9239418369
 20
2573800.439382506
 10
432040.1241398108
 20
2573829.321159299
 10
432070.5378647664
 20
2573865.336970109
 10
432104.2625036983
 20
2573905.451075902
 10
432153.2693709092
 20
2573959.967796987
 10
432211.0290352245
 20
2574027.654494357
 10
432250.2206948684
 20
2574077.22714697
 10
432279.7150977309
 20
2574124.069062586
 10
432286.6837946435
 20
2574135.13648772
 10
432289.8276157896
 20
2574139.156007933
 10
432310.4931905969
 20
2574165.57789622
 10
432327.5879030908
 20
2574178.962627248
 10
432369.3422327422
 20
2574190.447436026
 10
432392.6344898501
 20
2574197.129722612
 10
432397.3243775649
 20
2574200.536347488
 10
432425.7246510305
 20
2574203.107999133
 10
432431.1502032907
 20
2574204.903667385
 10
432476.669113455
 20
2574219.968836407
 10
432569.4428816069
 20
2574247.533960601
 10
432598.8652540979
 20
2574260.163390691
 10
432659.9858794221
 20
2574279.730660125
 10
432730.8171388333
 20
2574295.468216097
 10
432811.6263064003
 20
2574287.640665962
 10
432977.2301445678
 20
2574236.480277456
 10
433106.6516072893
 20
2574195.288809719
 10
433263.7060754342
 20
2574130.257567547
 10
433465.4939126743
 20
2574044.388001912
 10
433513.45201157
 20
2574016.915483311
 10
433546.2725963303
 20
2574003.970312562
 10
433598.7183358244
 20
2573983.284544943
 10
433716.9854854615
 20
2574046.927558425
 10
433995.3375269856
 20
2574324.930222791
 10
434057.7317254508
 20
2574385.228790669
 10
434107.6355037521
 20
2574439.022776183
 10
434166.437109283
 20
2574561.645236127
 10
434185.5179535943
 20
2574608.515460525
 10
434216.9148523164
 20
2574685.638845354
 10
434269.7398393164
 20
2574802.524349082
 10
434281.9004365639
 20
2574823.58076562
 10
434309.0875204358
 20
2574870.655961328
 10
434309.0875204359
 20
2574870.655961328
 10
434384.4372368709
 20
2574979.893609467
 10
434384.4372368709
 20
2574979.893609467
 10
434464.8695701503
 20
2575118.304808448
 10
434465.0146322172
 20
2575046.164709008
 10
434465.6635132282
 20
2574723.521815225
 10
434467.8207299028
 20
2574541.115655225
 10
434469.9918661186
 20
2574426.037374136
 10
434457.5421975418
 20
2574289.065648347
 10
434450.5571049546
 20
2574197.73362443
 10
434436.9759320396
 20
2574120.010533684
 10
434436.0863520831
 20
2574090.238706044
 10
434437.6827496658
 20
2574084.264824474
 10
434437.2397895105
 20
2574079.616115648
 10
434427.7147434331
 20
2573979.654061562
 10
434417.1676245664
 20
2573911.268190376
 10
434398.0524919303
 20
2573739.10376036
 10
434385.2576375421
 20
2573648.685527546
 10
434376.0750401957
 20
2573560.224564048
 10
434360.6055888599
 20
2573449.168303087
 10
434342.4748193044
 20
2573326.390584989
 10
434330.0628438917
 20
2573225.614204879
 10
434321.8225976449
 20
2573113.498949565
 10
434323.3040541589
 20
2573029.119168189
 10
434323.8491438657
 20
2572867.359207763
 10
434322.2962547296
 20
2572856.346897492
 10
434311.1945986126
 20
2572777.619481832
 10
434288.1143080176
 20
2572632.599058973
 10
434261.8796697212
 20
2572502.554090231
 10
434230.1947560833
 20
2572343.432821198
 10
434186.0645668787
 20
2572044.312373261
 10
434157.5329756474
 20
2571886.348744867
 10
434073.1746047639
 20
2571575.50533877
 10
434046.7165416121
 20
2571474.800760053
 10
433991.6426760058
 20
2571234.582024374
 10
434003.4276971397
 20
2571113.160798456
 10
434003.4276971397
 20
2571113.160798456
 10
434020.640154799
 20
2570932.532271758
 10
434026.5258831415
 20
2570880.135203621
 10
434029.1564920772
 20
2570854.15714416
 10
434012.2603118289
 20
2570813.333111319
 10
434005.9902882315
 20
2570790.070105788
 10
433975.7481379506
 20
2570722.000104695
 10
433924.1317651417
 20
2570627.012005922
 10
433919.5905970657
 20
2570444.924508402
 10
433917.8882883479
 20
2570376.666930342
 10
433916.4023819896
 20
2570371.415950593
 10
433893.5300138564
 20
2570290.588285238
 10
433873.776794626
 20
2570191.511429081
 10
433923.802334922
 20
2569970.511976169
 10
433942.3392536365
 20
2569888.620828761
 10
433942.5917099268
 20
2569887.505544414
 10
433976.5926478307
 20
2569657.553429506
 10
433976.6471427272
 20
2569494.515968046
 10
433972.2807275149
 20
2569414.167747442
 10
433970.7105712029
 20
2569402.636755237
 10
433972.2807275149
 20
2569414.167747442
 10
433972.2807282408
 20
2569414.167760799
 10
433962.3603051291
 20
2569341.313632132
 10
433954.9747785198
 20
2569295.359004688
 10
433946.1913361237
 20
2569248.14929264
 10
433946.0297524239
 20
2569212.592964689
 10
433945.9187002339
 20
2569188.155748818
 10
433951.2486596471
 20
2569127.6207408
 10
433945.8387296804
 20
2569079.903387184
 10
433932.9193800113
 20
2568965.950352932
 10
433910.906853089
 20
2568836.057430835
 10
433896.4386286042
 20
2568725.87750237
 10
433873.6512075607
 20
2568605.149061188
 10
433844.7430826433
 20
2568437.01915559
 10
433821.5233764402
 20
2568290.40913175
 10
433814.4254732131
 20
2568240.807321605
 10
433790.3644785877
 20
2568079.718200569
 10
433755.4028670471
 20
2567916.347780382
 10
433736.8078627879
 20
2567749.281549337
 10
433709.4021570758
 20
2567605.39833303
 10
433698.4559510811
 20
2567542.049051835
 10
433677.5310533604
 20
2567420.949698874
 10
433674.2104254383
 20
2567389.317549758
 10
433668.6394760316
 20
2567336.248905129
 10
433636.360193635
 20
2567210.917040976
 10
433598.7085017964
 20
2567107.494541212
 10
433585.4943329532
 20
2567071.197556684
 10
433548.6671242111
 20
2566934.310002576
 10
433504.1851225272
 20
2566812.20180482
 10
433463.5266420235
 20
2566685.180276638
 10
433430.7053248394
 20
2566561.952877356
 10
433415.64783952
 20
2566467.023331816
 10
433401.9441174731
 20
2566399.349073222
 10
433385.9936421776
 20
2566308.748840402
 10
433374.4928776495
 20
2566235.400494814
 10
433366.7096255964
 20
2566157.942230244
 10
433343.3540993079
 20
2566032.992996392
 10
433311.2516602824
 20
2565852.053851993
 10
433305.7736045545
 20
2565813.859683626
 10
433290.476071427
 20
2565768.156008836
 10
433287.9313916015
 20
2565754.010388878
 10
433251.61
 20
2565396.96
 10
433251.61
 20
2565396.96
  0
LWPOLYLINE
  5
239
330
1F
100
AcDbEntity
  8
0
 48
1.05
100
AcDbPolyline
 90
       76
 70
   128
 43
0.0
 39
0.9987052829999999
 10
443683.363069261
 20
2568394.185561526
 10
443607.3747095414
 20
2568467.427703632
 10
443607.3747095414
 20
2568467.427703632
 10
443546.0180805079
 20
2568520.940482972
 10
443545.1649191064
 20
2568522.224973498
 10
443452.7550982733
 20
2568598.239064802
 10
443390.1080103716
 20
2568649.120802074
 10
443348.3593231168
 20
2568684.726029123
 10
443369.7072796576
 20
2568709.757442626
 10
443428.1738994765
 20
2568778.312113611
 10
443390.0434581885
 20
2568806.09306475
 10
443370.8400249877
 20
2568821.500121809
 10
443323.260541968
 20
2568854.134530594
 10
443283.0319283087
 20
2568880.600388804
 10
443212.9129076282
 20
2568905.057027519
 10
443142.5329252984
 20
2568942.085276797
 10
443142.5329252984
 20
2568942.085276797
 10
443118.906984811
 20
2568953.818858369
 10
443051.0850657507
 20
2568987.089626515
 10
442975.569860621
 20
2569019.636707733
 10
442866.4081607763
 20
2569060.121524634
 10
442764.4489174755
 20
2569095.258637317
 10
442686.17808345
 20
2569124.616034251
 10
442553.0080421217
 20
2569168.816278288
 10
442514.0436714634
 20
2569185.06088427
 10
442424.6618236529
 20
2569222.325007493
 10
442295.1932439437
 20
2569270.430306653
 10
442285.3642681375
 20
2569274.082357949
 10
442160.0513602197
 20
2569299.601814801
 10
442040.2792825969
 20
2569313.076094397
 10
441898.7613165437
 20
2569308.83841452
 10
441752.0842010424
 20
2569293.842743145
 10
441628.4052817866
 20
2569304.693931209
 10
441515.712188491
 20
2569334.230746503
 10
441407.449360315
 20
2569384.309403027
 10
441211.5997077875
 20
2569505.307142894
 10
441098.7861996605
 20
2569578.485104107
 10
440996.3273567959
 20
2569612.993153064
 10
440845.540902066
 20
2569665.533371418
 10
440761.4483901109
 20
2569700.137026211
 10
440731.5338736924
 20
2569712.446704518
 10
440686.541672069
 20
2569728.214778824
 10
440640.187776439
 20
2569748.914837703
 10
440587.7205262818
 20
2569768.730777755
 10
440562.3454640667
 20
2569778.314484776
 10
440473.7906689036
 20
2569816.43820445
 10
440410.8460906548
 20
2569844.676827284
 10
440389.8672312974
 20
2569854.310689937
 10
440352.2939940296
 20
2569871.275827176
 10
440321.7530918127
 20
2569890.281075444
 10
440279.9893015174
 20
2569904.767170156
 10
440227.5500729457
 20
2569943.070148597
 10
440152.5117999675
 20
2569997.736434684
 10
440090.6336615586
 20
2570068.497203321
 10
439897.5663579314
 20
2570278.033447085
 10
439795.7563432085
 20
2570382.263751822
 10
439702.9554284357
 20
2570489.524345422
 10
439576.7625448598
 20
2570632.884621937
 10
439464.5092535843
 20
2570742.688120061
 10
439374.2900704449
 20
2570833.46650061
 10
439249.7928146521
 20
2570971.488302026
 10
439243.3586702481
 20
2570985.271087366
 10
439205.4047764514
 20
2571066.573347191
 10
439169.9503358566
 20
2571173.391486574
 10
439021.5316975889
 20
2571617.427662298
 10
439007.8049253127
 20
2571659.086927961
 10
439002.9283850857
 20
2571673.888380495
 10
438985.3673773196
 20
2571728.88541406
 10
438976.2731924104
 20
2571758.640982706
 10
438968.2920861202
 20
2571784.135447131
 10
438956.8058302358
 20
2571815.75298611
 10
438956.8058302358
 20
2571815.75298611
 10
438956.8058302358
 20
2571815.75298611
 10
438956.8058302358
 20
2571815.75298611
 10
438956.8058302358
 20
2571815.75298611
 10
439137.7490333467
 20
2571843.900217909
  0
LWPOLYLINE
  5
23A
330
1F
100
AcDbEntity
  8
0
 48
1.05
100
AcDbPolyline
 90
        7
 70
   128
 43
0.0
 39
0.9987052829999999
 10
439468.9990333468
 20
2569521.000217908
 10
439509.1073407917
 20
2569543.302470462
 10
439618.3478838103
 20
2569588.511982369
 10
439890.7134023607
 20
2569689.765338483
 10
440079.7452261101
 20
2569754.304249475
 10
440197.7819712369
 20
2569839.631302514
 10
440321.7530918127
 20
2569891.411465942
  0
LWPOLYLINE
  5
23B
330
1F
100
AcDbEntity
  8
0
 48
1.05
100
AcDbPolyline
 90
      103
 70
   128
 43
0.0
 10
443428.1738994765
 20
2568778.312113611
 10
443451.5045271392
 20
2568813.632883425
 10
443463.1637802397
 20
2568835.092472801
 10
443463.1658622507
 20
2568835.41483116
 10
443471.06121244
 20
2568852.063480968
 10
443528.6157557349
 20
2569061.261376556
 10
443528.6220962961
 20
2569062.687242109
 10
443529.7467585852
 20
2569065.998421212
 10
443531.2433124408
 20
2569068.576753641
 10
443538.160818014
 20
2569081.949488087
 10
443539.0818322036
 20
2569085.10693089
 10
443540.0645730614
 20
2569087.041139385
 10
443547.3354391302
 20
2569101.330943993
 10
443547.8971726531
 20
2569102.432268512
 10
443548.6727218232
 20
2569103.952784518
 10
443550.3326293802
 20
2569106.555014449
 10
443557.7348179086
 20
2569118.058961662
 10
443558.1224839181
 20
2569119.199270061
 10
443559.4817738871
 20
2569122.133451409
 10
443649.6141147334
 20
2569316.694317303
 10
443655.8221626678
 20
2569356.940110111
 10
443664.5681668319
 20
2569403.023653973
 10
443669.5563505572
 20
2569417.989834455
 10
443670.1349378759
 20
2569419.128715576
 10
443670.3497544322
 20
2569419.760254286
 10
443670.6982165893
 20
2569421.11955628
 10
443678.7488839375
 20
2569441.361741228
 10
443678.9094013714
 20
2569441.990868803
 10
443679.9057324676
 20
2569444.439667263
 10
443686.03475706
 20
2569456.231194267
 10
443695.0800227843
 20
2569480.304215861
 10
443695.3013394941
 20
2569480.735423084
 10
443695.402034536
 20
2569481.213566271
 10
443695.901571006
 20
2569482.895545772
 10
443696.0832801323
 20
2569484.082868713
 10
443696.4588768895
 20
2569486.863919694
 10
443698.8817135374
 20
2569495.868293667
 10
443699.2473112606
 20
2569497.604022731
 10
443699.4162143245
 20
2569498.093825132
 10
443699.6347864273
 20
2569499.71065498
 10
443700.0945385369
 20
2569501.893468967
 10
443700.1125685887
 20
2569503.779971
 10
443703.2635333204
 20
2569519.881765941
 10
443703.7623089862
 20
2569522.250423121
 10
443704.4939381169
 20
2569524.028771909
 10
443704.7025420572
 20
2569524.731967372
 10
443706.3606870226
 20
2569537.690491547
 10
443706.3746071011
 20
2569539.075461778
 10
443706.3860349552
 20
2569540.212497885
 10
443706.4032859797
 20
2569541.63504013
 10
443706.4217742352
 20
2569543.057856563
 10
443706.4474987914
 20
2569545.038374951
 10
443706.4598609445
 20
2569545.989448229
 10
443706.8237968563
 20
2569556.885464012
 10
443706.5809162054
 20
2569557.901694484
 10
443706.5899440038
 20
2569558.801852873
 10
443699.6833756381
 20
2569573.468258679
 10
443699.1626318851
 20
2569574.798123822
 10
443698.6626972053
 20
2569575.815088243
 10
443697.7194671468
 20
2569578.059941814
 10
443687.5242944984
 20
2569602.324234126
 10
443687.6086335966
 20
2569610.305209068
 10
443687.6266028672
 20
2569612.006099355
 10
443687.6541214727
 20
2569614.610802191
 10
443688.1756930499
 20
2569618.468029692
 10
443688.9549520159
 20
2569620.737430157
 10
443689.4488152217
 20
2569622.636483702
 10
443690.2047573428
 20
2569625.54351309
 10
443690.6160101449
 20
2569626.555080251
 10
443690.818524834
 20
2569627.735863869
 10
443691.5045286654
 20
2569630.09056213
 10
443692.1723415345
 20
2569632.70568866
 10
443710.1913272472
 20
2569680.793961559
 10
443717.9701233655
 20
2569710.11079832
 10
443718.1628885557
 20
2569711.611801329
 10
443718.9606318056
 20
2569718.834787243
 10
443718.9643691032
 20
2569720.20879566
 10
443719.2625798618
 20
2569726.371708065
 10
443719.271826959
 20
2569729.786207072
 10
443719.2756168824
 20
2569731.186866328
 10
443719.2877547468
 20
2569735.66801124
 10
443719.2912417009
 20
2569736.953135615
 10
443718.8330704713
 20
2569737.877449532
 10
443718.4883676994
 20
2569739.975454906
 10
443718.4788146931
 20
2569739.999539773
 10
443717.4428312079
 20
2569742.089622303
 10
443716.3242739706
 20
2569744.627797193
 10
443715.3534028302
 20
2569746.586538942
 10
443714.5153707922
 20
2569748.8402813
 10
443713.5946937379
 20
2569750.697789355
 10
443712.619322273
 20
2569753.644627963
 10
443704.028809353
 20
2569797.13224702
 10
443703.8884872385
 20
2569797.557234177
 10
443703.6452162552
 20
2569798.046887396
 10
443698.8276897495
 20
2569811.869327958
 10
443655.0129412288
 20
2569918.29811719
 10
443647.8296054677
 20
2569943.680943045
 10
443641.3247138422
 20
2569966.666438451
 10
443640.1958745821
 20
2570038.221174324
 10
443756.2099526254
 20
2570491.788525019
 10
443763.6572418655
 20
2570512.203739498
 10
443776.7896507032
 20
2570667.38455408
 10
443647.9990333467
 20
2570789.000217908
  0
LWPOLYLINE
  5
23C
330
1F
100
AcDbEntity
  8
0
 48
1.05
100
AcDbPolyline
 90
        2
 70
   128
 43
0.0
 10
436174.3560581854
 20
2568895.933989694
 10
436273.0085991854
 20
2569078.271706046
  0
LWPOLYLINE
  5
23D
330
1F
100
AcDbEntity
  8
0
 48
1.05
100
AcDbPolyline
 90
       41
 70
   128
 43
0.0
 10
452736.0022029387
 20
2564347.245102764
 10
452736.0022029387
 20
2564347.245102764
 10
452736.0022029387
 20
2564347.245102764
 10
452728.5661017728
 20
2564331.876403538
 10
452717.7528509774
 20
2564309.130227667
 10
452701.4150931464
 20
2564282.947909589
 10
452690.2067795641
 20
2564266.347543352
 10
452682.5221711615
 20
2564248.31927841
 10
452674.8630506808
 20
2564239.467976491
 10
452662.6543361704
 20
2564229.176250441
 10
452648.4002159411
 20
2564221.276880993
 10
452631.9350185015
 20
2564214.78453454
 10
452617.9740093719
 20
2564203.699531432
 10
452587.4585950766
 20
2564173.34207094
 10
452567.641735929
 20
2564158.420111954
 10
452548.3856110596
 20
2564141.076570365
 10
452530.4421141592
 20
2564123.019079425
 10
452469.57695706
 20
2564059.544389307
 10
452426.1901422894
 20
2564019.71770582
 10
452385.377607614
 20
2563979.807519486
 10
452357.2899178637
 20
2563952.794348068
 10
452328.3420107552
 20
2563928.657849773
 10
452296.4056448233
 20
2563899.043564632
 10
452246.4302022846
 20
2563854.085631119
 10
452221.4838988881
 20
2563836.621010401
 10
452191.3508034189
 20
2563815.298558093
 10
452157.7194906917
 20
2563797.428948562
 10
452140.7891386804
 20
2563781.676136234
 10
452102.2195411172
 20
2563809.419957574
 10
452005.0914433721
 20
2563876.451869029
 10
451945.8256533615
 20
2563917.906858057
 10
451929.8001225718
 20
2563931.079432373
 10
451901.4511816239
 20
2563960.827322072
 10
451864.1559801475
 20
2564003.526503539
 10
451828.7851167621
 20
2564044.513876616
 10
451659.1435113942
 20
2564188.039938046
 10
451639.4735780878
 20
2564204.054418536
 10
451591.9194881138
 20
2564248.31927841
 10
451415.8361808191
 20
2564377.76539381
 10
451371.1877139228
 20
2564395.204963672
 10
451246.8640036878
 20
2564465.764870467
  0
LWPOLYLINE
  5
23E
330
1F
100
AcDbEntity
  8
0
 48
1.05
100
AcDbPolyline
 90
        2
 70
   128
 43
0.0
 39
0.9987052829999999
 10
443728.5834063382
 20
2568603.777742879
 10
443607.3747095414
 20
2568467.427703632
  0
LWPOLYLINE
  5
23F
330
1F
100
AcDbEntity
  8
0
 48
1.05
100
AcDbPolyline
 90
        2
 70
   128
 43
0.0
 10
449086.33
 20
2566346.233541416
 10
449086.781752729
 20
2566145.182505318
  0
LWPOLYLINE
  5
240
330
1F
100
AcDbEntity
  8
0
 48
1.05
100
AcDbPolyline
 90
      132
 70
   128
 43
0.0
 10
450073.7505460089
 20
2563753.865512615
 10
450072.1766668418
 20
2563689.405488887
 10
450106.1201811129
 20
2563670.728469977
 10
450124.0714056568
 20
2563669.039663523
 10
450126.3441055654
 20
2563668.372451438
 10
450167.3593591918
 20
2563661.612340736
 10
450168.2410589653
 20
2563661.166667449
 10
450187.3076668712
 20
2563654.298734887
 10
450197.1710663044
 20
2563653.605414771
 10
450213.8745068383
 20
2563654.65911351
 10
450216.9142291896
 20
2563655.751666294
 10
450231.2799773346
 20
2563660.141465861
 10
450236.4648698811
 20
2563662.440471532
 10
450268.5283414287
 20
2563684.22219387
 10
450270.7608457433
 20
2563686.198914559
 10
450309.2545614318
 20
2563716.434551816
 10
450311.2695704127
 20
2563717.475891295
 10
450314.5880013547
 20
2563719.979505988
 10
450332.2551612941
 20
2563728.461710391
 10
450366.0276263628
 20
2563740.148372923
 10
450403.4163410568
 20
2563747.620708678
 10
450447.9306106997
 20
2563755.057193109
 10
450449.8631392649
 20
2563755.335996344
 10
450472.5633206163
 20
2563755.792221404
 10
450475.2886861175
 20
2563754.429349467
 10
450494.1119465377
 20
2563758.145896824
 10
450499.1270093499
 20
2563759.851569887
 10
450509.2367485563
 20
2563768.872228319
 10
450515.1061786574
 20
2563778.630483158
 10
450516.5713493159
 20
2563782.49973515
 10
450518.325263325
 20
2563788.213216117
 10
450520.8226592382
 20
2563797.917690834
 10
450521.4829329115
 20
2563799.725436339
 10
450522.2103207263
 20
2563802.028542384
 10
450523.3209333826
 20
2563803.92559525
 10
450526.2374016597
 20
2563814.770942784
 10
450527.7913763168
 20
2563817.437213502
 10
450528.2732138571
 20
2563818.263930276
 10
450533.6143780819
 20
2563827.428344987
 10
450533.8797394915
 20
2563827.883666989
 10
450535.3888252757
 20
2563829.86137125
 10
450542.0641867192
 20
2563838.50031312
 10
450544.395423332
 20
2563842.490002486
 10
450548.5338986637
 20
2563859.279728664
 10
450547.7668439114
 20
2563865.08792741
 10
450547.8327846272
 20
2563866.938771796
 10
450547.6596100353
 20
2563895.232317532
 10
450549.0489729193
 20
2563905.257491967
 10
450549.2106567534
 20
2563907.61508475
 10
450549.3070892759
 20
2563909.020918883
 10
450549.4198761787
 20
2563909.90332168
 10
450555.1594979203
 20
2563924.604454036
 10
450555.3579289347
 20
2563925.270791484
 10
450557.1682793735
 20
2563928.440311384
 10
450564.242661292
 20
2563945.2030423
 10
450559.5112351296
 20
2563954.706823379
 10
450555.5468527157
 20
2563958.893864966
 10
450542.5017683761
 20
2563969.635618972
 10
450539.5494464642
 20
2563971.136370739
 10
450537.2270011602
 20
2563972.657985595
 10
450518.814059942
 20
2563986.818365937
 10
450516.083971
 20
2563988.207606861
 10
450514.0118656925
 20
2563989.261962951
 10
450511.2672364654
 20
2563990.553581732
 10
450491.5928111929
 20
2563997.658130219
 10
450475.7375999454
 20
2564007.236132769
 10
450471.6875869827
 20
2564010.789547289
 10
450469.3909441018
 20
2564012.954302751
 10
450455.9924411632
 20
2564024.515865232
 10
450449.8399009095
 20
2564031.771391772
 10
450449.1780968669
 20
2564032.299122117
 10
450447.9002750207
 20
2564034.489795794
 10
450450.4129584322
 20
2564052.269389472
 10
450450.5109362539
 20
2564052.493515709
 10
450454.7697237053
 20
2564062.235642597
 10
450461.0766248995
 20
2564077.807352733
 10
450461.2307905239
 20
2564078.034936528
 10
450482.3385894439
 20
2564117.13952787
 10
450482.8923674184
 20
2564119.939141201
 10
450491.0560729753
 20
2564136.273009708
 10
450491.0458397673
 20
2564140.457332253
 10
450493.8351027454
 20
2564157.697524652
 10
450501.054487061
 20
2564205.085073922
 10
450501.0565882177
 20
2564208.028156997
 10
450501.0584959265
 20
2564208.039482799
 10
450501.0781722982
 20
2564208.117443036
 10
450507.3772928915
 20
2564226.843465956
 10
450508.1195192204
 20
2564229.049982921
 10
450508.7772842077
 20
2564233.59933921
 10
450508.777635327
 20
2564233.971071435
 10
450511.8729659232
 20
2564248.067078552
 10
450511.8740018887
 20
2564249.058816476
 10
450512.4929359634
 20
2564251.511160671
 10
450512.4944050778
 20
2564252.883562555
 10
450512.4968918083
 20
2564255.20659015
 10
450512.4985467026
 20
2564256.741511607
 10
450512.5008678136
 20
2564258.890767098
 10
450512.5265487365
 20
2564271.401668894
 10
450512.8797761481
 20
2564272.063538362
 10
450514.2084164749
 20
2564274.035143639
 10
450515.5321795746
 20
2564276.654024235
 10
450516.2586327441
 20
2564278.44978896
 10
450516.9253337798
 20
2564279.109115792
 10
450517.852830164
 20
2564282.772203642
 10
450518.1677436404
 20
2564283.395220394
 10
450522.4568848396
 20
2564294.547194314
 10
450612.7635962879
 20
2564509.990940414
 10
450619.032509955
 20
2564517.462831616
 10
450619.3022999426
 20
2564517.993016645
 10
450620.9425279823
 20
2564529.723612234
 10
450622.5848618317
 20
2564537.13310184
 10
450629.4924852634
 20
2564558.546123424
 10
450676.8582664756
 20
2564777.566967653
 10
450681.0827078179
 20
2564780.943541006
 10
450692.8499260212
 20
2564796.254084416
 10
450696.2409148602
 20
2564804.531755855
 10
450698.5109681173
 20
2564809.968484727
 10
450698.5109681173
 20
2564809.968484727
 10
450703.2189114224
 20
2564819.542107571
 10
450703.2189114224
 20
2564819.542107571
 10
450703.2189114224
 20
2564819.542107571
 10
450718.023267274
 20
2564837.928859274
 10
450718.023267274
 20
2564837.928859274
 10
450718.023267274
 20
2564837.928859274
 10
450718.023267274
 20
2564837.928859274
 10
450718.023267274
 20
2564837.928859274
 10
450718.023267274
 20
2564837.928859274
 10
450718.023267274
 20
2564837.928859274
 10
450718.023267274
 20
2564837.928859274
 10
450718.023267274
 20
2564837.928859274
 10
450736.6637575842
 20
2564861.276563513
 10
450736.6637575842
 20
2564861.276563513
  0
LWPOLYLINE
  5
26D
330
1F
100
AcDbEntity
  8
0
 48
1.05
100
AcDbPolyline
 90
        4
 70
   128
 43
0.0
 10
431561.2589226446
 20
2562636.075183407
 10
431562.3756622883
 20
2562641.210911993
 10
431563.2485532229
 20
2562644.187527979
 10
431563.6793971806
 20
2562645.656773835
  0
LWPOLYLINE
  5
26E
330
1F
100
AcDbEntity
  8
0
 48
1.05
100
AcDbPolyline
 90
       10
 70
   128
 43
0.0
 10
431562.1758878117
 20
2562635.810859441
 10
431630.8829526078
 20
2563004.135027376
 10
431635.0143057176
 20
2563026.17236928
 10
431639.7986243476
 20
2563085.312540405
 10
431644.3133882862
 20
2563122.434506543
 10
431644.5998611341
 20
2563124.638172878
 10
431644.4506471744
 20
2563126.141391365
 10
431644.7137358006
 20
2563130.826258325
 10
431645.6679510227
 20
2563149.963871121
 10
431598.8090333468
 20
2563203.310217909
  0
LWPOLYLINE
  5
26F
330
1F
100
AcDbEntity
  8
0
 48
1.05
100
AcDbPolyline
 90
       75
 70
   128
 43
0.0
 10
445494.8146368908
 20
2558563.282793514
 10
445458.9064604717
 20
2558509.717177062
 10
445416.3100247287
 20
2558444.8374998
 10
445416.3020806721
 20
2558444.825400012
 10
445302.1324218775
 20
2558195.950441997
 10
445267.945231998
 20
2558071.022896553
 10
445282.7817447174
 20
2557776.326261876
 10
445282.7817447174
 20
2557776.326261876
 10
445317.3529933724
 20
2557499.755170664
 10
445365.6392043881
 20
2557337.381407048
 10
445375.7664527226
 20
2557312.33497758
 10
445425.5264921385
 20
2557182.131941519
 10
445427.2717958771
 20
2557177.196235349
 10
445445.0095871793
 20
2557143.097486372
 10
445471.9207580437
 20
2557080.251086332
 10
445494.7411750675
 20
2557026.957936638
 10
445519.2792518299
 20
2556973.84116411
 10
445543.8345487498
 20
2556920.687115672
 10
445591.5081408212
 20
2556817.392075281
 10
445597.8622535965
 20
2556805.413956214
 10
445606.9616071014
 20
2556734.365290085
 10
445609.6838676106
 20
2556724.720412643
 10
445606.8265317827
 20
2556655.181609296
 10
445586.0992654179
 20
2556485.864801441
 10
445572.1576526321
 20
2556449.633013259
 10
445570.8335205591
 20
2556448.124674172
 10
445570.540067646
 20
2556444.381505378
 10
445552.0117564137
 20
2556419.331580665
 10
445548.2676487334
 20
2556415.500376957
 10
445547.6695297881
 20
2556414.736366743
 10
445521.1418980631
 20
2556360.129832401
 10
445514.3716330821
 20
2556354.46667875
 10
445513.2655654534
 20
2556353.300385263
 10
445493.269546825
 20
2556290.074811595
 10
445490.7777440897
 20
2556253.901108558
 10
445490.0355273364
 20
2556243.471511945
 10
445489.7085526337
 20
2556238.877056206
 10
445492.7800623829
 20
2556216.984809647
 10
445493.0032503568
 20
2556214.639781799
 10
445494.4684432954
 20
2556212.25234403
 10
445495.8114871318
 20
2556206.869282289
 10
445507.776472823
 20
2556168.262183903
 10
445509.0087842777
 20
2556165.162900395
 10
445510.2610931091
 20
2556160.047629986
 10
445510.6070194271
 20
2556157.973442279
 10
445518.0018751548
 20
2556140.180100952
 10
445571.7544411755
 20
2556005.632764406
 10
445574.2751745556
 20
2556002.07419025
 10
445611.5687316179
 20
2555943.914028489
 10
445615.327419901
 20
2555940.090147228
 10
445618.4907683564
 20
2555934.978092174
 10
445644.323194566
 20
2555894.359828586
 10
445645.2571341471
 20
2555891.605409379
 10
445647.3744905233
 20
2555888.59529204
 10
445649.3768569273
 20
2555884.645527107
 10
445651.3512523825
 20
2555879.384746396
 10
445652.8545798835
 20
2555876.371680295
 10
445654.5905308836
 20
2555871.484254855
 10
445669.8559649029
 20
2555817.361353006
 10
445670.843374956
 20
2555813.268680029
 10
445671.4465063932
 20
2555809.57203758
 10
445671.3801256966
 20
2555806.227186409
 10
445671.0759128109
 20
2555787.730753625
 10
445670.05979614
 20
2555725.949893592
 10
445667.8699571818
 20
2555683.254141214
 10
445666.709625314
 20
2555660.630905875
 10
445666.4660379535
 20
2555646.463463207
 10
445666.3126605374
 20
2555637.435298322
 10
445656.0935435333
 20
2555596.652846519
 10
445655.014132351
 20
2555592.285986477
 10
445653.5391574199
 20
2555588.765775655
 10
445652.3878301175
 20
2555585.244736668
 10
445647.4534061902
 20
2555577.665018763
 10
445646.4202332632
 20
2555575.900574664
 10
445550.9890333468
 20
2555516.150217909
  0
LWPOLYLINE
  5
270
330
1F
100
AcDbEntity
  8
0
 48
1.05
100
AcDbPolyline
 90
     1403
 70
   128
 43
0.0
 10
451682.4842065523
 20
2555184.940067651
 10
451685.7214691343
 20
2555227.149647016
 10
451679.0765346477
 20
2555277.000939439
 10
451672.3703902989
 20
2555336.383701007
 10
451672.3739839512
 20
2555336.97580389
 10
451672.2645032409
 20
2555403.747381411
 10
451672.2694585628
 20
2555404.96194847
 10
451672.5083445177
 20
2555472.424631173
 10
451651.5856141051
 20
2555471.800502042
 10
451620.7440045285
 20
2555470.880526337
 10
451565.2940457306
 20
2555458.61454243
 10
451478.8570230286
 20
2555453.244723085
 10
451389.8517435571
 20
2555456.239813569
 10
451337.4875744383
 20
2555450.865008124
 10
451334.3062076017
 20
2555450.871193762
 10
451276.4987019123
 20
2555442.811121828
 10
451271.46851002
 20
2555441.01543846
 10
451192.4837221743
 20
2555424.579573325
 10
451189.3119034996
 20
2555423.803448829
 10
451188.2673105297
 20
2555423.288764425
 10
451140.5321800228
 20
2555417.481196028
 10
451139.154846151
 20
2555417.485823925
 10
451136.0294036871
 20
2555417.496320117
 10
451087.9147071039
 20
2555416.443482377
 10
450813.5863953491
 20
2555309.751979231
 10
450796.2655312165
 20
2555288.726635564
 10
450787.9314613751
 20
2555274.680465666
 10
450786.3334811319
 20
2555268.417278941
 10
450784.826818587
 20
2555264.604240852
 10
450782.4269861973
 20
2555258.932887118
 10
450780.3128952436
 20
2555254.880169679
 10
450765.1974389353
 20
2555249.863764824
 10
450740.6363761957
 20
2555242.862214401
 10
450720.3925448359
 20
2555234.836475413
 10
450708.3536092446
 20
2555228.645279559
 10
450704.9925115704
 20
2555229.134677408
 10
450701.7772144989
 20
2555229.465711221
 10
450697.608038283
 20
2555229.698478197
 10
450692.2061846743
 20
2555230.98218049
 10
450682.0141379346
 20
2555238.203576084
 10
450671.756584785
 20
2555241.905273237
 10
450659.0626439523
 20
2555251.007008279
 10
450646.8630408392
 20
2555252.397900976
 10
450635.2986636708
 20
2555250.642490535
 10
450620.1748422393
 20
2555244.818678769
 10
450595.8999208377
 20
2555226.919451097
 10
450576.5901947905
 20
2555206.918475593
 10
450565.670817324
 20
2555195.433433294
 10
450553.7006788435
 20
2555188.598111095
 10
450531.7472755272
 20
2555182.745102302
 10
450513.7544107578
 20
2555180.149767766
 10
450488.3468458382
 20
2555179.73315056
 10
450462.8318345539
 20
2555180.075841144
 10
450429.1477655111
 20
2555184.252391698
 10
450426.5419176368
 20
2555184.780059621
 10
450390.7663977548
 20
2555189.414017301
 10
450347.7992309046
 20
2555195.794434628
 10
450328.1305412389
 20
2555196.635116098
 10
450306.806946496
 20
2555201.190141567
 10
450302.989352808
 20
2555202.153274831
 10
450296.2766675866
 20
2555204.04741526
 10
450292.5687705231
 20
2555204.911852951
 10
450285.295256348
 20
2555206.626132776
 10
450265.5459053777
 20
2555213.421112236
 10
450236.4303634839
 20
2555221.848115939
 10
450223.8835588428
 20
2555227.619055754
 10
450200.7670302814
 20
2555234.805350645
 10
450187.3020140083
 20
2555239.846755651
 10
450177.2924609823
 20
2555242.947368402
 10
450164.8760977557
 20
2555248.256975471
 10
450155.3957955854
 20
2555254.831895691
 10
450133.0200403507
 20
2555268.655827789
 10
450108.0294682376
 20
2555279.250234976
 10
450068.3174232169
 20
2555293.552557576
 10
450041.1221253663
 20
2555299.923117569
 10
450019.2822846606
 20
2555304.042134856
 10
449995.3604308927
 20
2555313.210785866
 10
449961.2080960528
 20
2555330.225178749
 10
449953.3233602848
 20
2555333.795837345
 10
449989.9404118055
 20
2555377.035240264
 10
450016.8261117639
 20
2555413.976015119
 10
450050.2554986613
 20
2555459.754616014
 10
450067.8958859782
 20
2555482.82135828
 10
450082.8110208952
 20
2555503.617091575
 10
450105.2700308512
 20
2555546.019771367
 10
450115.7731407613
 20
2555569.828531184
 10
450126.4243366612
 20
2555603.821352091
 10
450132.2981699849
 20
2555620.650437623
 10
450140.1064953593
 20
2555656.573309117
 10
450106.6102822178
 20
2555702.953775032
 10
450089.9416000873
 20
2555719.64400125
 10
450078.8721053512
 20
2555733.390089479
 10
450073.0673959632
 20
2555748.945699889
 10
450053.0045414612
 20
2555782.457844553
 10
450045.0726842649
 20
2555802.107831853
 10
450025.7981494352
 20
2555827.479235585
 10
450006.0507950268
 20
2555849.999516067
 10
449988.1228443594
 20
2555862.910884352
 10
449969.5950126347
 20
2555876.235344316
 10
449959.2986836102
 20
2555889.434478176
 10
449949.9947792602
 20
2555917.458788911
 10
449947.6924919417
 20
2555922.077354042
 10
449936.9221790118
 20
2555946.944734414
 10
449921.409990366
 20
2555966.363422431
 10
449907.5678310065
 20
2555983.093147779
 10
449900.3627575139
 20
2555998.977369413
 10
449895.5258676025
 20
2556023.466523978
 10
449879.4032626511
 20
2556044.997356429
 10
449855.6211262349
 20
2556104.68984644
 10
449844.1606076544
 20
2556123.192769403
 10
449824.347032636
 20
2556135.227366015
 10
449798.8650414133
 20
2556149.533104065
 10
449771.9750304403
 20
2556167.358489811
 10
449720.529971277
 20
2556197.989335792
 10
449686.1745257415
 20
2556225.2279731
 10
449668.0428338257
 20
2556256.794883416
 10
449655.510330917
 20
2556279.993000222
 10
449645.5321786952
 20
2556315.878842696
 10
449627.5168247444
 20
2556367.854981989
 10
449612.2960621494
 20
2556409.67232762
 10
449601.9727307916
 20
2556443.679972473
 10
449589.1231026846
 20
2556479.573421897
 10
449588.4367040829
 20
2556481.644908847
 10
449580.756772771
 20
2556505.012456289
 10
449577.1802996659
 20
2556514.312777808
 10
449564.1807639748
 20
2556538.079264684
 10
449546.3203610601
 20
2556571.977211145
 10
449537.2100983504
 20
2556584.384137506
 10
449525.500196175
 20
2556604.260732639
 10
449513.5088736676
 20
2556618.790079486
 10
449503.3210643105
 20
2556627.590489272
 10
449490.5961032682
 20
2556639.227653038
 10
449467.2361176853
 20
2556662.796503761
 10
449455.151882449
 20
2556680.381861013
 10
449441.0259005706
 20
2556709.775063092
 10
449436.2157925193
 20
2556726.496822077
 10
449436.2690284836
 20
2556741.744458725
 10
449436.2762086985
 20
2556743.801285694
 10
449438.3696342945
 20
2556758.184733334
 10
449443.5535773146
 20
2556781.097942883
 10
449452.8317565236
 20
2556814.767668406
 10
449460.1351796878
 20
2556835.941835162
 10
449472.1944554492
 20
2556878.820388139
 10
449482.4719291973
 20
2556903.348964852
 10
449489.8243664015
 20
2556927.9288138
 10
449494.7433043861
 20
2556951.365800985
 10
449501.1858554234
 20
2556999.646928297
 10
449504.5251213386
 20
2557040.399282247
 10
449507.9624538738
 20
2557076.268372802
 10
449504.7997553438
 20
2557089.626461698
 10
449497.7219303081
 20
2557097.086548542
 10
449485.5977519661
 20
2557106.123726395
 10
449472.7249420125
 20
2557108.585337319
 10
449460.94272445
 20
2557112.769304326
 10
449457.0197358672
 20
2557113.061695469
 10
449447.7772475631
 20
2557114.765960105
 10
449444.2581235971
 20
2557116.253756377
 10
449439.7011811535
 20
2557117.403438527
 10
449434.8305683359
 20
2557120.656638424
 10
449420.7316671232
 20
2557128.072275536
 10
449392.0812177822
 20
2557142.128274696
 10
449378.4008829972
 20
2557147.987305757
 10
449351.9294805177
 20
2557156.235657745
 10
449321.7007226538
 20
2557166.217845705
 10
449307.3513393404
 20
2557172.012069542
 10
449287.3348116381
 20
2557180.507049181
 10
449261.2508374157
 20
2557190.761333161
 10
449236.682469199
 20
2557201.302538084
 10
449222.8662569451
 20
2557205.460402171
 10
449204.7567109639
 20
2557207.642968724
 10
449186.2653888065
 20
2557211.387418753
 10
449167.328072091
 20
2557213.802493695
 10
449147.2358561656
 20
2557214.696605944
 10
449122.8492262731
 20
2557217.409654158
 10
449086.7855032147
 20
2557220.895461167
 10
449084.9599437472
 20
2557221.507614209
 10
449078.0324675854
 20
2557223.653542122
 10
449068.980500663
 20
2557228.603970906
 10
449044.5791700184
 20
2557236.157491507
 10
449019.341300286
 20
2557245.233879009
 10
449000.2889030271
 20
2557251.405445071
 10
448984.2917485753
 20
2557259.531669245
 10
448975.9222600723
 20
2557264.193241313
 10
448973.1963538347
 20
2557267.553060186
 10
448970.9675006277
 20
2557269.784809952
 10
448962.9572929099
 20
2557281.961453754
 10
448956.6109742614
 20
2557291.116284706
 10
448952.680322644
 20
2557304.585943498
 10
448948.3290905872
 20
2557312.000040349
 10
448941.8087450538
 20
2557319.75378173
 10
448924.3139433649
 20
2557332.371253384
 10
448880.845509805
 20
2557350.327939393
 10
448831.7168128634
 20
2557372.135593533
 10
448828.1303040659
 20
2557373.81505166
 10
448814.4359807713
 20
2557382.617706446
 10
448806.3291841915
 20
2557391.520839467
 10
448797.9329178596
 20
2557400.755205383
 10
448795.0360539321
 20
2557403.655828791
 10
448778.857375711
 20
2557411.769876145
 10
448746.8959543572
 20
2557424.307890063
 10
448699.5719579628
 20
2557443.157537246
 10
448695.8792377063
 20
2557444.842084202
 10
448664.7543912464
 20
2557454.86538834
 10
448647.8841522853
 20
2557458.966051254
 10
448618.612069601
 20
2557464.960517102
 10
448596.9713645771
 20
2557471.86874512
 10
448566.9462974151
 20
2557483.422718249
 10
448533.1765773984
 20
2557483.540623208
 10
448507.270098071
 20
2557483.328211431
 10
448494.3118054276
 20
2557482.56831047
 10
448483.1517904652
 20
2557484.970057831
 10
448446.0885303922
 20
2557500.624072893
 10
448387.5579946274
 20
2557520.175192114
 10
448337.8095295218
 20
2557542.35676305
 10
448303.1017491362
 20
2557558.857920831
 10
448263.6905986876
 20
2557576.753635296
 10
448226.6162059167
 20
2557597.733840119
 10
448215.0000580946
 20
2557601.837617223
 10
448212.132239341
 20
2557603.14586033
 10
448205.3153838192
 20
2557606.121205007
 10
448195.7049373354
 20
2557610.641483982
 10
448190.8711641754
 20
2557612.721333983
 10
448180.6978051392
 20
2557616.22927599
 10
448156.6363233176
 20
2557628.047590664
 10
448151.6346430232
 20
2557628.065055535
 10
448150.8876100126
 20
2557628.253527294
 10
448142.4937010655
 20
2557628.879158702
 10
448139.6907523911
 20
2557629.586325318
 10
448134.3086335021
 20
2557630.676198096
 10
448129.9189437936
 20
2557631.151153068
 10
448124.7888851404
 20
2557633.320019435
 10
448122.3224507085
 20
2557633.819469587
 10
448118.6990744775
 20
2557635.715298971
 10
448106.751039287
 20
2557647.135173132
 10
448081.412174364
 20
2557670.097798278
 10
448069.5354852969
 20
2557682.882067475
 10
448059.4405677774
 20
2557692.338139403
 10
448048.5137605724
 20
2557700.597740161
 10
448038.606607061
 20
2557701.904017064
 10
448007.9240855448
 20
2557700.750103055
 10
447988.6725234815
 20
2557700.133744691
 10
447965.9992379668
 20
2557700.47198501
 10
447955.1784602821
 20
2557699.999342422
 10
447940.3650453415
 20
2557700.051070229
 10
447930.3505116877
 20
2557697.975315927
 10
447920.2975831833
 20
2557695.442295427
 10
447897.6558039133
 20
2557686.33167926
 10
447892.9369631615
 20
2557685.008874329
 10
447883.856092833
 20
2557685.040588116
 10
447861.6441228875
 20
2557687.109828711
 10
447853.6226768418
 20
2557687.636456242
 10
447852.1118697311
 20
2557687.808714939
 10
447837.6916605022
 20
2557690.534112997
 10
447822.1906659668
 20
2557693.822428529
 10
447770.5547646982
 20
2557706.058515776
 10
447728.5424533643
 20
2557726.602632835
 10
447671.2508894425
 20
2557753.176700527
 10
447626.0814622096
 20
2557774.980743756
 10
447575.1927959437
 20
2557799.260435198
 10
447535.6237350253
 20
2557817.959318729
 10
447486.0215322014
 20
2557840.358293529
 10
447447.5967238009
 20
2557857.760746348
 10
447428.4875243102
 20
2557863.436121933
 10
447403.1892681561
 20
2557878.774307672
 10
447373.2838508975
 20
2557895.186076606
 10
447337.058404804
 20
2557914.645293633
 10
447298.9017144562
 20
2557930.607456921
 10
447283.0276544108
 20
2557938.045589685
 10
447263.5620031397
 20
2557945.920474577
 10
447235.4312477911
 20
2557953.083194421
 10
447189.8822820917
 20
2557964.463357413
 10
447152.5515824114
 20
2557972.22653337
 10
447112.0332596265
 20
2557981.401979265
 10
447088.4437355372
 20
2557986.403623005
 10
447057.7733718656
 20
2557990.870720487
 10
447040.3150008002
 20
2557993.563321974
 10
447014.5565711185
 20
2557994.709635377
 10
446989.2323715539
 20
2557994.542907728
 10
446972.1760633976
 20
2557994.855622446
 10
446933.9747569104
 20
2557994.730589858
 10
446892.0831456746
 20
2557990.741814667
 10
446845.5835154586
 20
2557984.753195115
 10
446815.9864113975
 20
2557979.532119591
 10
446803.4723461528
 20
2557977.901554492
 10
446786.884095169
 20
2557976.928330007
 10
446756.837887215
 20
2557981.164519032
 10
446700.262802737
 20
2557989.235142885
 10
446660.8008645525
 20
2557996.256690021
 10
446618.2604443271
 20
2558000.769285595
 10
446575.8409352726
 20
2558004.72131946
 10
446532.0652386966
 20
2558009.219097241
 10
446485.9430291567
 20
2558010.916468531
 10
446448.3699104311
 20
2558012.072149855
 10
446428.9056391129
 20
2558011.624064875
 10
446409.0877757764
 20
2558011.174761396
 10
446377.0725644315
 20
2558008.255782159
 10
446348.6708477888
 20
2558008.109887485
 10
446337.1229221524
 20
2558008.786820695
 10
446308.1829593004
 20
2558014.33652025
 10
446287.3625065221
 20
2558019.496667919
 10
446259.8034752537
 20
2558024.446023845
 10
446235.9721813696
 20
2558035.480749218
 10
446207.1572014497
 20
2558052.411661373
 10
446185.0745811289
 20
2558066.179679475
 10
446151.6998180188
 20
2558085.333735187
 10
446134.6400860771
 20
2558095.767214656
 10
446104.5656809379
 20
2558109.154640274
 10
446078.8893323198
 20
2558120.415667368
 10
446061.6251191376
 20
2558130.058754626
 10
446045.7833608906
 20
2558138.906613655
 10
446019.7909166985
 20
2558158.611897287
 10
445984.5435078179
 20
2558190.867987258
 10
445943.0334782567
 20
2558224.765617747
 10
445907.3991393807
 20
2558254.921477993
 10
445867.7972165538
 20
2558293.845595322
 10
445825.0812984533
 20
2558334.04453303
 10
445797.2505353742
 20
2558356.291852748
 10
445768.1713627621
 20
2558382.397953102
 10
445731.1472830361
 20
2558417.35431
 10
445707.750058415
 20
2558437.017643652
 10
445677.3666695897
 20
2558461.20459179
 10
445643.4584748808
 20
2558483.066638996
 10
445601.7489789029
 20
2558504.353049427
 10
445565.9561467245
 20
2558530.108460622
 10
445559.1835055605
 20
2558534.025119839
 10
445550.6473539029
 20
2558539.810265938
 10
445539.2314774761
 20
2558546.728185195
 10
445522.0315723667
 20
2558556.339393311
 10
445494.8146368908
 20
2558563.282793514
 10
445493.3519308249
 20
2558563.985282908
 10
445469.9910440438
 20
2558575.204744979
 10
445449.3457287185
 20
2558584.805443465
 10
445418.7804751554
 20
2558598.57510747
 10
445385.4863480268
 20
2558613.07411577
 10
445337.6424547729
 20
2558629.622080761
 10
445318.957731191
 20
2558638.77598947
 10
445296.8352825512
 20
2558645.254344433
 10
445250.1947925557
 20
2558666.084269331
 10
445205.6184842247
 20
2558691.733225351
 10
445174.3153682676
 20
2558712.476857269
 10
445157.5459166074
 20
2558726.763357197
 10
445126.2591624304
 20
2558749.934869827
 10
445104.2598634628
 20
2558764.359375712
 10
445066.8917122206
 20
2558789.602653704
 10
445026.9676008073
 20
2558820.455929469
 10
445025.206052455
 20
2558822.416570016
 10
445003.4798975743
 20
2558846.598303084
 10
444992.6807730235
 20
2558859.624856388
 10
444984.450448998
 20
2558870.616087245
 10
444974.1002720577
 20
2558876.673180164
 10
444949.6677434139
 20
2558894.871166277
 10
444928.6643370323
 20
2558910.467069364
 10
444903.5748987443
 20
2558932.556193333
 10
444893.1504496807
 20
2558942.250175009
 10
444892.9387203707
 20
2558942.52281323
 10
444889.5935854813
 20
2558947.02506877
 10
444880.1343565111
 20
2558968.509045138
 10
444868.8092709568
 20
2558988.07977758
 10
444853.4554223345
 20
2559006.676325649
 10
444838.9029345636
 20
2559022.53335846
 10
444830.3368198267
 20
2559029.632727655
 10
444817.4830291026
 20
2559039.957450234
 10
444804.5186754336
 20
2559046.02834838
 10
444780.3785884062
 20
2559060.364636521
 10
444761.9403915299
 20
2559071.751898429
 10
444748.4803752614
 20
2559079.519003409
 10
444732.3398078354
 20
2559088.89898635
 10
444712.1333311167
 20
2559101.833800689
 10
444697.0974683707
 20
2559114.563825421
 10
444656.1380555388
 20
2559138.197049871
 10
444630.1724642042
 20
2559156.545773118
 10
444610.8675043284
 20
2559169.268838713
 10
444598.4546075506
 20
2559177.973176955
 10
444577.7227697329
 20
2559190.056664792
 10
444559.8534928135
 20
2559201.025868957
 10
444543.1261033279
 20
2559210.920573708
 10
444523.5603203921
 20
2559221.568763444
 10
444511.2798187522
 20
2559224.792784673
 10
444500.1376072768
 20
2559226.0482041
 10
444488.0465129251
 20
2559229.070153169
 10
444462.7198848714
 20
2559233.066234993
 10
444443.3376321386
 20
2559237.604752862
 10
444421.241759086
 20
2559244.739965055
 10
444407.3484874404
 20
2559251.993644929
 10
444390.0170888599
 20
2559259.095428404
 10
444378.7490682082
 20
2559263.875992158
 10
444360.2789002015
 20
2559265.861805953
 10
444340.0532432586
 20
2559269.019975541
 10
444322.5975267416
 20
2559270.895068251
 10
444294.217469767
 20
2559278.196701805
 10
444270.6916437169
 20
2559285.644419006
 10
444249.4785768118
 20
2559289.76032866
 10
444234.8375907137
 20
2559290.841123866
 10
444219.4484894844
 20
2559290.752495776
 10
444191.0598793464
 20
2559288.97641654
 10
444168.6932747622
 20
2559289.054595499
 10
444145.6092090304
 20
2559284.358251727
 10
444115.5089365309
 20
2559279.574482315
 10
444094.5868906908
 20
2559276.60609673
 10
444075.5496224238
 20
2559274.53168376
 10
444055.5597948717
 20
2559271.885869812
 10
444040.5245651262
 20
2559267.282661387
 10
444034.2215861496
 20
2559264.176454389
 10
444020.401072454
 20
2559257.497173147
 10
443998.7406223667
 20
2559247.920073011
 10
443976.7787330739
 20
2559240.471208227
 10
443962.2901117905
 20
2559237.088240547
 10
443942.6953475344
 20
2559231.254319052
 10
443926.8561042323
 20
2559227.522258371
 10
443896.7246980899
 20
2559221.597605012
 10
443889.9434583936
 20
2559221.508933665
 10
443863.1227709365
 20
2559221.737072046
 10
443831.7859067111
 20
2559221.17937933
 10
443804.5448663053
 20
2559222.187606873
 10
443786.3391109154
 20
2559224.099124616
 10
443760.7800643664
 20
2559231.702019247
 10
443743.0147105951
 20
2559234.925686862
 10
443713.2535112967
 20
2559244.405784056
 10
443693.699764964
 20
2559248.164110113
 10
443668.2390721389
 20
2559252.289331258
 10
443645.8963756526
 20
2559253.381812774
 10
443618.2549445411
 20
2559254.335745004
 10
443576.9405127778
 20
2559253.821917114
 10
443564.3935480186
 20
2559254.529511567
 10
443540.6457857161
 20
2559254.748236514
 10
443519.8971542793
 20
2559255.090741852
 10
443488.0562616473
 20
2559254.815603468
 10
443453.8624619903
 20
2559250.688646714
 10
443422.6737947379
 20
2559247.086846188
 10
443390.6559402298
 20
2559245.229757017
 10
443352.3639394405
 20
2559245.100144173
 10
443329.2094112375
 20
2559246.348965801
 10
443313.4627589793
 20
2559248.052782392
 10
443302.4704588912
 20
2559252.608814471
 10
443301.6449481839
 20
2559253.02283546
 10
443291.9649336894
 20
2559257.537627971
 10
443278.7897493746
 20
2559263.838290438
 10
443269.4178093351
 20
2559270.938565737
 10
443260.047811681
 20
2559278.267003306
 10
443237.4350460416
 20
2559293.600350952
 10
443215.1574268299
 20
2559307.755597903
 10
443200.5213888301
 20
2559316.218422042
 10
443186.1770966745
 20
2559323.735960482
 10
443174.4424186479
 20
2559329.139229861
 10
443155.9900872683
 20
2559337.726681141
 10
443143.2698808952
 20
2559343.974087185
 10
443122.2425818051
 20
2559354.731920061
 10
443102.8928544978
 20
2559365.524034762
 10
443088.1302447231
 20
2559376.709986743
 10
443062.9309762201
 20
2559395.793817045
 10
443035.7319587474
 20
2559417.397823733
 10
443014.2294913784
 20
2559434.56432899
 10
442988.9316867201
 20
2559460.476574801
 10
442962.1483831646
 20
2559482.909963583
 10
442927.6423038182
 20
2559511.049832326
 10
442912.8180901495
 20
2559524.94931683
 10
442880.880964057
 20
2559557.890869657
 10
442853.2561173183
 20
2559583.370140035
 10
442833.6943610286
 20
2559600.837983131
 10
442808.7378411517
 20
2559622.553312038
 10
442793.2214909904
 20
2559633.685333754
 10
442772.2957991741
 20
2559645.551492095
 10
442732.0888878983
 20
2559660.314476659
 10
442694.2065711795
 20
2559675.535139933
 10
442675.0879107945
 20
2559683.817226441
 10
442610.2370682406
 20
2559709.795393601
 10
442565.0585618265
 20
2559729.671533629
 10
442532.2974468486
 20
2559744.112643467
 10
442480.9242360089
 20
2559770.075226059
 10
442442.5158272192
 20
2559783.750571979
 10
442397.0840947943
 20
2559799.970216459
 10
442359.0160209441
 20
2559814.110725574
 10
442297.8912225572
 20
2559833.845922816
 10
442265.332466965
 20
2559842.227589559
 10
442234.9622824322
 20
2559848.89119321
 10
442185.8959381198
 20
2559860.418180957
 10
441892.2904432178
 20
2559924.460923205
 10
441865.4551376619
 20
2559920.926984756
 10
441863.861000669
 20
2559920.937786092
 10
441830.1825372328
 20
2559919.884271395
 10
441825.1276791028
 20
2559919.918326367
 10
441823.709113741
 20
2559919.714786655
 10
441800.4649577293
 20
2559919.87212498
 10
441798.4795308622
 20
2559919.887324391
 10
441795.8841816157
 20
2559919.907189733
 10
441793.8873399747
 20
2559919.922472051
 10
441791.6584170291
 20
2559919.939531812
 10
441758.0096368175
 20
2559923.390891091
 10
441757.4206579113
 20
2559923.393229295
 10
441718.2805496692
 20
2559931.525162439
 10
441715.9736464227
 20
2559931.782934811
 10
441666.1348620021
 20
2559941.212769883
 10
441660.301894647
 20
2559942.591171303
 10
441658.2399494497
 20
2559942.879137866
 10
441616.1344195604
 20
2559949.799297315
 10
441614.6389559707
 20
2559950.4664904
 10
441571.2920644766
 20
2559962.799276824
 10
441570.2205234167
 20
2559962.790131047
 10
441532.1311203206
 20
2559973.670801721
 10
441530.8527600024
 20
2559974.433175145
 10
441481.2982184278
 20
2559984.198366794
 10
441480.7809101115
 20
2559984.190235426
 10
441441.0635354867
 20
2559992.970421655
 10
441369.9362397157
 20
2559999.081939242
 10
440921.1649266698
 20
2560045.561630046
 10
440895.8340109676
 20
2560048.052422702
 10
440892.380126561
 20
2560049.928741991
 10
440845.9519354138
 20
2560056.92207894
 10
440820.4062722908
 20
2560063.144172502
 10
440817.7691186245
 20
2560064.129729054
 10
440794.3134149754
 20
2560065.682974606
 10
440756.863813459
 20
2560066.879119116
 10
440752.8072975778
 20
2560067.090458455
 10
440733.6503328671
 20
2560067.1579953
 10
440724.2890747396
 20
2560067.19099791
 10
440711.2020520175
 20
2560067.237135503
 10
440679.650938121
 20
2560064.877995334
 10
440675.3851735778
 20
2560064.550989373
 10
440673.5180578322
 20
2560063.912663645
 10
440644.0274990806
 20
2560058.189635746
 10
440642.3862545456
 20
2560057.623456536
 10
440641.5841935191
 20
2560057.48341405
 10
440613.5612623496
 20
2560049.634434903
 10
440613.4044572198
 20
2560049.635722815
 10
440611.3866644694
 20
2560049.842012804
 10
440608.0346408422
 20
2560049.869582111
 10
440606.9310126843
 20
2560049.878662924
 10
440605.969013504
 20
2560050.180296538
 10
440605.2081129754
 20
2560050.700162419
 10
440603.9101966918
 20
2560050.905884446
 10
440603.6728474385
 20
2560051.075134866
 10
440602.9756431805
 20
2560051.550918932
 10
440601.5353621883
 20
2560052.652113258
 10
440601.0241013563
 20
2560052.939618192
 10
440600.2314033774
 20
2560053.592700791
 10
440599.414848481
 20
2560054.15010307
 10
440598.0833619101
 20
2560055.742333308
 10
440596.3544105558
 20
2560056.716522567
 10
440595.3266275605
 20
2560057.674328998
 10
440581.8588480165
 20
2560068.310035309
 10
440580.7919732366
 20
2560070.047516502
 10
440577.8599465789
 20
2560072.294899612
 10
440577.2625309228
 20
2560073.000608978
 10
440559.756192522
 20
2560085.971429836
 10
440559.1293259575
 20
2560086.703031005
 10
440557.748358672
 20
2560088.314729841
 10
440555.5863279816
 20
2560089.973557508
 10
440530.1184358704
 20
2560104.909534025
 10
440529.4389130856
 20
2560105.491313477
 10
440527.1490746001
 20
2560107.581408597
 10
440496.6636627729
 20
2560121.38075069
 10
440496.3109076539
 20
2560121.635278958
 10
440494.2880157096
 20
2560123.376871315
 10
440464.2822418462
 20
2560135.25645338
 10
440455.6827676343
 20
2560138.661085408
 10
440441.3018486155
 20
2560158.691875025
 10
440415.8207475199
 20
2560191.622891054
 10
440388.9009482282
 20
2560220.770607026
 10
440369.767474971
 20
2560236.232037413
 10
440352.9891692345
 20
2560246.766313495
 10
440343.6668750191
 20
2560257.513152795
 10
440341.9602890074
 20
2560259.337677722
 10
440341.0904148989
 20
2560260.091743544
 10
440324.4413959996
 20
2560279.886878354
 10
440312.4346801019
 20
2560295.961200726
 10
440297.2125485315
 20
2560313.424132916
 10
440280.1676482186
 20
2560326.144307122
 10
440264.6771057955
 20
2560336.239856342
 10
440251.0945599948
 20
2560343.163168054
 10
440232.0563290616
 20
2560351.48658018
 10
440207.3328368318
 20
2560358.98687524
 10
440180.687410569
 20
2560364.832464531
 10
440157.7528789281
 20
2560371.059492248
 10
440127.9389680148
 20
2560379.946839821
 10
440104.478280866
 20
2560386.838253293
 10
440081.7101401986
 20
2560393.010865058
 10
440061.7638257354
 20
2560398.056609284
 10
440043.2515858035
 20
2560406.330763382
 10
440025.8009011226
 20
2560415.322892058
 10
440009.688443759
 20
2560426.914679327
 10
440009.4647917657
 20
2560427.542850635
 10
439991.0876721065
 20
2560440.932628173
 10
439971.960981073
 20
2560451.434049521
 10
439949.8000255588
 20
2560459.009101695
 10
439917.1512784572
 20
2560464.002069996
 10
439889.9525217472
 20
2560468.995257384
 10
439865.8997555561
 20
2560472.447707442
 10
439851.2654780053
 20
2560473.364191597
 10
439829.0609847246
 20
2560480.189499402
 10
439804.9132458204
 20
2560487.100630435
 10
439782.2317467912
 20
2560495.167644369
 10
439768.8306288549
 20
2560499.938875925
 10
439750.1768206486
 20
2560511.070177503
 10
439726.2030675586
 20
2560522.900910945
 10
439699.7669202554
 20
2560536.335937694
 10
439671.8205215761
 20
2560548.376528839
 10
439670.4680729244
 20
2560548.753340182
 10
439644.375125239
 20
2560557.291535714
 10
439615.2120646474
 20
2560564.697541599
 10
439582.6251793303
 20
2560571.511333936
 10
439579.8316830791
 20
2560572.186719327
 10
439545.7083312481
 20
2560581.618568523
 10
439507.3706964889
 20
2560593.472536806
 10
439479.4647307656
 20
2560602.840520688
 10
439449.4381244474
 20
2560613.018274306
 10
439422.2746504083
 20
2560626.227286094
 10
439394.11545706
 20
2560640.871636078
 10
439366.2127621796
 20
2560656.065043964
 10
439339.8331916296
 20
2560674.018716085
 10
439339.1853614899
 20
2560674.021054329
 10
439324.2824319472
 20
2560683.600630502
 10
439303.9146470196
 20
2560693.159498279
 10
439303.4315375436
 20
2560693.67349706
 10
439296.6143028846
 20
2560696.059492912
 10
439267.1858622715
 20
2560707.72098621
 10
439235.8439511697
 20
2560721.807360683
 10
439210.8759840303
 20
2560730.182647229
 10
439206.3886701352
 20
2560731.461801891
 10
439205.5823960027
 20
2560731.595147255
 10
439187.4988720672
 20
2560738.016977414
 10
439186.1800862464
 20
2560738.703027342
 10
439183.4942881367
 20
2560740.10189786
 10
439180.4340874613
 20
2560742.174853705
 10
439173.7539263544
 20
2560746.699947358
 10
439171.6083274175
 20
2560749.425638948
 10
439152.3121777495
 20
2560774.066989629
 10
439151.6343416112
 20
2560775.193679185
 10
439150.2530431973
 20
2560777.075252471
 10
439132.1057859115
 20
2560798.267121384
 10
439131.9457725491
 20
2560799.205031235
 10
439128.02200467
 20
2560804.157836224
 10
439108.5401448026
 20
2560820.920927375
 10
439107.3443502889
 20
2560822.626545514
 10
439106.7540402864
 20
2560823.265925578
 10
439091.426188137
 20
2560843.83545312
 10
439091.1303736774
 20
2560844.937811216
 10
439088.3683872799
 20
2560848.658842096
 10
439086.9442434961
 20
2560850.215711993
 10
439086.5070500207
 20
2560850.840451261
 10
439086.0227707785
 20
2560851.492531843
 10
439085.4764883374
 20
2560852.615745971
 10
439083.9235998686
 20
2560854.3156264
 10
439083.2645277881
 20
2560855.858863045
 10
439083.1447125647
 20
2560856.156202923
 10
439083.1417351212
 20
2560856.200421237
 10
439082.4893512946
 20
2560858.558268176
 10
439082.3904866465
 20
2560860.0088027
 10
439082.3193426501
 20
2560861.081622755
 10
439084.5334281126
 20
2560872.130039992
 10
439084.5866906618
 20
2560872.216531917
 10
439084.6464898445
 20
2560872.37020471
 10
439086.1799884786
 20
2560874.194255029
 10
439087.8603567871
 20
2560876.813711575
 10
439089.4033978319
 20
2560878.932172217
 10
439090.2750277834
 20
2560880.344731142
 10
439091.4666420562
 20
2560882.275842407
 10
439092.262274814
 20
2560884.29277091
 10
439093.0767489879
 20
2560886.357444468
 10
439093.9101433954
 20
2560888.470081333
 10
439094.5034823832
 20
2560890.561305796
 10
439095.4386465426
 20
2560892.934417292
 10
439095.2500097605
 20
2560896.821947018
 10
439095.2117018001
 20
2560897.611447692
 10
439095.1090257902
 20
2560899.727428151
 10
439094.9301248848
 20
2560903.414254323
 10
439093.8104576929
 20
2560907.57684889
 10
439085.8349470813
 20
2560926.636383615
 10
439084.2857601318
 20
2560928.837391756
 10
439082.476330229
 20
2560931.408155703
 10
439078.5472474885
 20
2560934.502464267
 10
439075.5851257775
 20
2560936.148654729
 10
439073.5367417697
 20
2560937.509907327
 10
439070.8196045689
 20
2560938.517272459
 10
439070.1645780331
 20
2560938.881153077
 10
439067.8520683606
 20
2560939.928214287
 10
439063.9636995833
 20
2560941.20416684
 10
439060.9004551704
 20
2560942.37427931
 10
439059.5091991762
 20
2560942.830929699
 10
439033.4486003772
 20
2560954.894128047
 10
439027.7327063071
 20
2560956.356377459
 10
439002.9739924634
 20
2560962.690218673
 10
438999.8258154278
 20
2560962.64822353
 10
438971.6859114897
 20
2560961.70108261
 10
438969.4817975317
 20
2560961.317278769
 10
438949.7129825481
 20
2560957.874930854
 10
438948.5294241153
 20
2560957.85975297
 10
438918.1132703172
 20
2560952.509509085
 10
438908.2065886497
 20
2560924.969861744
 10
438917.4804869433
 20
2560893.39110419
 10
438919.0453605126
 20
2560888.305677011
 10
438920.1377397049
 20
2560885.799949771
 10
438926.7100738424
 20
2560860.034722803
 10
438927.1170234631
 20
2560859.040084622
 10
438927.1695144183
 20
2560858.170377096
 10
438927.2267090889
 20
2560857.222780775
 10
438929.0271359614
 20
2560843.275409454
 10
438927.9143458787
 20
2560840.996055071
 10
438922.3413655134
 20
2560815.887786286
 10
438911.3549608353
 20
2560789.38695896
 10
438897.7612905281
 20
2560762.96979205
 10
438889.5902579088
 20
2560756.53181744
 10
438866.3782139209
 20
2560760.679878724
 10
438861.0040174564
 20
2560760.744818705
 10
438834.0001166425
 20
2560765.527727872
 10
438831.8556054644
 20
2560765.554351151
 10
438831.469707663
 20
2560765.559140254
 10
438804.8631089615
 20
2560770.2548837
 10
438775.0011716808
 20
2560775.074465839
 10
438771.9191193787
 20
2560775.38542062
 10
438749.9246550205
 20
2560776.429968358
 10
438748.5520031488
 20
2560776.434845061
 10
438727.8428796258
 20
2560780.275105063
 10
438704.809889269
 20
2560781.095064269
 10
438679.4859069989
 20
2560784.161361923
 10
438658.8597872495
 20
2560782.665149479
 10
438642.3350314699
 20
2560783.666773736
 10
438618.421215752
 20
2560787.897000794
 10
438593.3688891152
 20
2560789.539110241
 10
438568.1491446447
 20
2560790.954185886
 10
438566.0368781656
 20
2560790.98460115
 10
438546.837814952
 20
2560789.229068738
 10
438545.5757064558
 20
2560789.247052225
 10
438520.0940236638
 20
2560787.642619849
 10
438516.7366876184
 20
2560786.351603496
 10
438490.862125258
 20
2560783.663213637
 10
438462.6570131367
 20
2560783.163331852
 10
438433.033092916
 20
2560780.598713027
 10
438432.8214640097
 20
2560780.59946175
 10
438403.8575966489
 20
2560779.012298576
 10
438402.4110612868
 20
2560779.017412703
 10
438376.9582144749
 20
2560778.272718843
 10
438374.6089909574
 20
2560777.932707078
 10
438355.0086008911
 20
2560779.971867922
 10
438352.2024088516
 20
2560779.981790547
 10
438323.5894685668
 20
2560778.146869399
 10
438289.8281742771
 20
2560778.434318869
 10
438281.4880531415
 20
2560775.769667724
 10
438279.3954730052
 20
2560775.76402989
 10
438278.3380281521
 20
2560775.761181466
 10
438276.8063513618
 20
2560776.038591561
 10
438276.6404906869
 20
2560776.084479338
 10
438275.0843079209
 20
2560776.515028775
 10
438273.1653552748
 20
2560776.984353479
 10
438245.5091844749
 20
2560782.851887855
 10
438222.8077111281
 20
2560788.076352046
 10
438219.9444437182
 20
2560788.817270764
 10
438218.4623657224
 20
2560788.844471403
 10
438192.9162837439
 20
2560794.585779228
 10
438191.4294568956
 20
2560795.424946105
 10
438187.2739805532
 20
2560795.505031875
 10
438185.7672702873
 20
2560795.534073885
 10
438185.1386916897
 20
2560795.546192801
 10
438157.9507871992
 20
2560802.752830156
 10
438157.529755093
 20
2560802.937350022
 10
438131.1066241337
 20
2560813.144949706
 10
438097.7390214497
 20
2560825.082426926
 10
438061.3419899723
 20
2560839.252335247
 10
438035.111935081
 20
2560849.939737185
 10
438009.6781873478
 20
2560862.046145735
 10
437975.2158804754
 20
2560876.378665353
 10
437946.2614919756
 20
2560889.696427042
 10
437918.2567943128
 20
2560902.458265644
 10
437887.8577395429
 20
2560915.655674286
 10
437852.1691897468
 20
2560932.377315465
 10
437812.414854035
 20
2560952.449694089
 10
437786.0608062644
 20
2560963.613830164
 10
437757.5171961248
 20
2560975.42859215
 10
437736.3546873867
 20
2560980.433454157
 10
437709.0196586421
 20
2560987.252213107
 10
437707.2216588483
 20
2560987.55465715
 10
437688.1767785588
 20
2560990.903054917
 10
437668.6926460429
 20
2560992.859999436
 10
437642.896984045
 20
2560992.44278504
 10
437609.9729770476
 20
2560992.334837553
 10
437584.5477000651
 20
2560991.186260389
 10
437563.1359604287
 20
2560989.563859442
 10
437543.0738249384
 20
2560989.947080387
 10
437514.2766382867
 20
2560991.566071331
 10
437493.4322807772
 20
2560993.20904104
 10
437468.0121160043
 20
2560998.758436364
 10
437437.496894346
 20
2561006.439712518
 10
437408.4524407417
 20
2561014.541555995
 10
437384.0889916857
 20
2561020.758438995
 10
437350.4167979787
 20
2561025.662747292
 10
437319.3793567057
 20
2561030.216479794
 10
437281.4977149372
 20
2561030.31379147
 10
437251.105353945
 20
2561027.601098897
 10
437219.2577244631
 20
2561023.112765287
 10
437183.9175447989
 20
2561016.576280691
 10
437137.3908761621
 20
2561009.250167659
 10
437104.5555745011
 20
2561001.1371703
 10
437084.0913033023
 20
2560998.832057923
 10
437044.008888558
 20
2560996.824147146
 10
437043.198547609
 20
2560996.810553169
 10
437041.3529608621
 20
2560996.779616494
 10
437021.0307168473
 20
2560994.968220684
 10
436994.5487398772
 20
2560994.644683605
 10
436970.2284012451
 20
2560992.764461019
 10
436967.05986084
 20
2560992.775631582
 10
436959.4156976729
 20
2560990.110594094
 10
436958.7828929289
 20
2560990.112827639
 10
436957.7887207197
 20
2560990.116339934
 10
436955.8002248118
 20
2560990.123351627
 10
436952.0223446015
 20
2560990.136687455
 10
436950.5738155071
 20
2560990.141803795
 10
436930.0482843292
 20
2560990.701115986
 10
436928.7384928518
 20
2560990.705739789
 10
436925.1765268462
 20
2560990.734119563
 10
436902.5980592323
 20
2560990.930511991
 10
436900.6895734028
 20
2560990.937246349
 10
436872.657714161
 20
2560984.018480344
 10
436868.8829551979
 20
2560984.031830106
 10
436840.5651161965
 20
2560979.653737248
 10
436811.7139611705
 20
2560972.398896326
 10
436810.4979357247
 20
2560972.492748338
 10
436807.5808735504
 20
2560972.47888937
 10
436776.9851173423
 20
2560969.603365499
 10
436750.5574303172
 20
2560963.421915555
 10
436749.9726092434
 20
2560963.419618428
 10
436720.6626882135
 20
2560962.892314663
 10
436720.0074362921
 20
2560962.88976561
 10
436717.9734990187
 20
2560962.881847195
 10
436715.4673349239
 20
2560962.872092489
 10
436684.2740168666
 20
2560961.250188189
 10
436684.0548300292
 20
2560961.250978954
 10
436680.6402206544
 20
2560961.263351022
 10
436633.5513626697
 20
2560963.388055127
 10
436623.0847131375
 20
2560964.324983621
 10
436598.7134919247
 20
2560965.367833531
 10
436597.5826894021
 20
2560965.889725797
 10
436592.3058434846
 20
2560965.908760747
 10
436571.8169645401
 20
2560966.403905595
 10
436565.1710281075
 20
2560966.187601985
 10
436548.9519252443
 20
2560964.19080074
 10
436548.2702793993
 20
2560964.198689597
 10
436542.7572064709
 20
2560963.920588811
 10
436541.5183346024
 20
2560963.467815408
 10
436525.0851784972
 20
2560962.20645113
 10
436525.0538376479
 20
2560962.206794564
 10
436523.0128833292
 20
2560962.229160511
 10
436520.6000338132
 20
2560962.25559685
 10
436517.1645464021
 20
2560962.293240667
 10
436498.4512307749
 20
2560960.46384928
 10
436495.332779249
 20
2560959.473862977
 10
436495.0268857934
 20
2560959.408022284
 10
436492.5944218724
 20
2560958.49403424
 10
436467.9906122807
 20
2560946.320121173
 10
436446.0364922306
 20
2560929.259800751
 10
436444.2923197436
 20
2560926.734294808
 10
436427.0627388854
 20
2560910.424204355
 10
436425.3178382729
 20
2560908.426018485
 10
436411.2508065978
 20
2560893.007947782
 10
436411.0650242089
 20
2560892.868143932
 10
436397.1367564338
 20
2560885.69551367
 10
436383.2226200589
 20
2560880.353406321
 10
436361.7324966408
 20
2560874.808615046
 10
436331.0427163924
 20
2560869.221068592
 10
436294.5757961952
 20
2560861.842822632
 10
436254.7020797407
 20
2560850.395374705
 10
436219.4528679625
 20
2560841.019146702
 10
436191.2915911545
 20
2560834.220153962
 10
436161.438874345
 20
2560829.472397884
 10
436122.8507367383
 20
2560824.717149302
 10
436083.9009826171
 20
2560820.364809849
 10
436082.4562632337
 20
2560820.383438874
 10
436062.0083183955
 20
2560814.180068947
 10
436061.9075494317
 20
2560814.13250427
 10
436058.1523302954
 20
2560813.56291963
 10
436055.569521385
 20
2560812.154923991
 10
436054.5975469666
 20
2560811.865669873
 10
436053.262526039
 20
2560811.432816844
 10
436052.0068140188
 20
2560811.241307646
 10
436049.8447779597
 20
2560810.654024864
 10
436040.0715658768
 20
2560808.40696668
 10
436027.8225961754
 20
2560808.24577751
 10
436027.9426883667
 20
2560805.616472594
 10
436023.5643688251
 20
2560804.711987676
 10
436023.5479628317
 20
2560804.705322088
 10
436017.7092511867
 20
2560804.631645658
 10
436017.1447329467
 20
2560804.624523072
 10
436015.827843103
 20
2560804.607905225
 10
436015.5740607796
 20
2560804.604702645
 10
436007.7948267763
 20
2560805.154051889
 10
436006.5190807548
 20
2560805.137826876
 10
436005.2050024316
 20
2560805.752258243
 10
436003.5936440548
 20
2560806.604255014
 10
436002.0964689172
 20
2560807.048084043
 10
436002.0231192986
 20
2560807.098552563
 10
435981.3427301215
 20
2560815.829478532
 10
435969.0666619
 20
2560822.539846159
 10
435960.2311895208
 20
2560827.369519472
 10
435928.4355202851
 20
2560849.97549345
 10
435927.6129375511
 20
2560850.955099847
 10
435899.1017069977
 20
2560872.271044216
 10
435879.5854891624
 20
2560889.238596173
 10
435879.4540017536
 20
2560890.167120543
 10
435854.3611137043
 20
2560917.557971974
 10
435853.5911679608
 20
2560918.831347793
 10
435829.2847580941
 20
2560948.402705382
 10
435814.166663206
 20
2560972.945186759
 10
435813.6024610778
 20
2560973.778492799
 10
435813.0948705343
 20
2560974.618094424
 10
435799.6719565743
 20
2560999.108514097
 10
435798.5890913055
 20
2561000.942921257
 10
435796.8176510648
 20
2561003.76540692
 10
435781.0561193207
 20
2561021.216139067
 10
435779.8556644389
 20
2561022.10363294
 10
435770.1291693309
 20
2561032.557928198
 10
435768.8773523263
 20
2561034.587019394
 10
435745.5067782362
 20
2561050.519037686
 10
435742.7051020546
 20
2561052.869205087
 10
435738.9234740242
 20
2561054.069545292
 10
435718.1907631362
 20
2561064.979878665
 10
435717.2262220262
 20
2561065.440551058
 10
435692.704967943
 20
2561080.596319913
 10
435691.2221782306
 20
2561081.424163756
 10
435690.6016405665
 20
2561081.835747216
 10
435663.7899310293
 20
2561099.991757652
 10
435639.0200731267
 20
2561110.731299586
 10
435635.6964143588
 20
2561111.871776294
 10
435600.5119348183
 20
2561125.146283894
 10
435598.934041066
 20
2561125.386142031
 10
435575.4229961965
 20
2561133.804279442
 10
435574.2161700405
 20
2561134.838816113
 10
435569.5478847664
 20
2561135.977141362
 10
435542.4634789783
 20
2561145.29076166
 10
435512.2405964854
 20
2561155.149393296
 10
435480.5457863125
 20
2561162.730350385
 10
435448.2077948783
 20
2561170.644994775
 10
435419.6187376632
 20
2561176.231891641
 10
435417.4153260711
 20
2561176.292409411
 10
435386.8182133732
 20
2561179.266489531
 10
435361.664329674
 20
2561176.362165406
 10
435336.3651875203
 20
2561179.463693982
 10
435310.3837306425
 20
2561182.031751398
 10
435309.5129253203
 20
2561182.004268987
 10
435308.3565025626
 20
2561182.226568245
 10
435283.6584237212
 20
2561186.037933721
 10
435281.9486677972
 20
2561186.563338048
 10
435277.9145859727
 20
2561186.577443145
 10
435255.6743808447
 20
2561188.961031934
 10
435255.6490672427
 20
2561188.988115903
 10
435223.9419519333
 20
2561193.903828782
 10
435186.8501928847
 20
2561202.158366852
 10
435185.0298618842
 20
2561202.448892518
 10
435156.803106591
 20
2561205.896059119
 10
435155.2096268408
 20
2561206.245859935
 10
435154.2079236009
 20
2561206.249440914
 10
435152.8689636279
 20
2561206.48018724
 10
435136.04286558
 20
2561206.314264315
 10
435134.4880743807
 20
2561206.319816974
 10
435133.0344251734
 20
2561206.325001563
 10
435131.1801897567
 20
2561206.331618442
 10
435108.5635139557
 20
2561208.332399012
 10
435106.5244933958
 20
2561208.339665751
 10
435083.1581674065
 20
2561206.006123133
 10
435080.7872675342
 20
2561203.722674489
 10
435063.0192289485
 20
2561197.77159034
 10
435035.2660086412
 20
2561186.791784888
 10
435010.3371844428
 20
2561179.069755985
 10
435008.4726923578
 20
2561178.043554544
 10
434984.0504245684
 20
2561167.689855377
 10
434958.5571048767
 20
2561154.671322991
 10
434933.6127630013
 20
2561140.651719386
 10
434920.8773209229
 20
2561133.493975114
 10
434887.2027315151
 20
2561104.606694919
 10
434887.2639610165
 20
2561104.074767952
 10
434861.7274187872
 20
2561084.470335771
 10
434851.1022634723
 20
2561077.028198344
 10
434828.7796556077
 20
2561061.392908032
 10
434828.0273685648
 20
2561060.986205932
 10
434798.911842107
 20
2561041.253173761
 10
434797.6988860665
 20
2561040.783212415
 10
434763.4206887689
 20
2561017.24549959
 10
434762.8169721953
 20
2561015.76102599
 10
434739.809651582
 20
2560995.699772304
 10
434722.8010241901
 20
2560982.598982645
 10
434716.9438960458
 20
2560979.597773382
 10
434715.61004354
 20
2560979.048845121
 10
434714.2373357208
 20
2560978.220276402
 10
434714.0264983738
 20
2560978.113106906
 10
434713.748406896
 20
2560978.005552402
 10
434706.0930955183
 20
2560976.038469343
 10
434705.5054791558
 20
2560975.884181416
 10
434702.8838760782
 20
2560975.621460563
 10
434702.3838378173
 20
2560975.432944
 10
434693.181001896
 20
2560978.405487492
 10
434691.7258550951
 20
2560978.39629916
 10
434681.0965051171
 20
2560981.465168133
 10
434665.8347337966
 20
2560985.871510581
 10
434640.9896213405
 20
2560995.344328174
 10
434638.3551897099
 20
2560996.740772544
 10
434607.0896632403
 20
2561007.773289706
 10
434568.7000038886
 20
2561021.460329366
 10
434565.7495464904
 20
2561022.481406931
 10
434564.1489061971
 20
2561022.647326563
 10
434534.353410041
 20
2561033.860684164
 10
434533.607249867
 20
2561034.420274559
 10
434493.3031076439
 20
2561049.717365273
 10
434462.9037314249
 20
2561066.210580957
 10
434432.5513023462
 20
2561083.230069087
 10
434431.4342349696
 20
2561083.457958545
 10
434429.5942476708
 20
2561084.40266945
 10
434403.0244205124
 20
2561097.856828085
 10
434401.5161146578
 20
2561098.737350668
 10
434371.3491704098
 20
2561112.84987296
 10
434342.2272018947
 20
2561126.422504768
 10
434322.017242591
 20
2561135.548398993
 10
434293.511119561
 20
2561149.414401958
 10
434258.9402636853
 20
2561167.767495677
 10
434257.502160168
 20
2561168.22593127
 10
434224.3243018152
 20
2561189.706287017
 10
434223.1828838928
 20
2561189.904604699
 10
434201.3009668433
 20
2561207.17701969
 10
434199.1797625685
 20
2561209.577634234
 10
434195.3114944932
 20
2561211.46756946
 10
434169.635671612
 20
2561226.398582964
 10
434167.9578007174
 20
2561227.699455149
 10
434162.6592732074
 20
2561229.814803842
 10
434155.3605414063
 20
2561232.767444912
 10
434129.1447627935
 20
2561243.372858622
 10
434086.5210821767
 20
2561257.789347096
 10
434080.8221580275
 20
2561257.82425914
 10
434076.4825703078
 20
2561257.849801087
 10
434050.3741480175
 20
2561268.81244343
 10
434048.298864475
 20
2561269.290671409
 10
434046.1463579447
 20
2561269.907229327
 10
434042.7821534993
 20
2561270.72230432
 10
434017.408294542
 20
2561288.151660046
 10
434015.199471872
 20
2561288.997664816
 10
433983.4838701735
 20
2561301.103520509
 10
433941.8555327923
 20
2561315.006948234
 10
433915.1905165553
 20
2561318.912995043
 10
433914.5302422592
 20
2561319.114015992
 10
433878.3571668891
 20
2561327.920208289
 10
433829.0503918339
 20
2561339.537998524
 10
433826.0771311448
 20
2561340.129505684
 10
433781.0765656707
 20
2561348.789338404
 10
433777.4254848301
 20
2561349.562170713
 10
433775.0889621408
 20
2561350.0566813
 10
433735.8343277101
 20
2561357.06041905
 10
433731.5270208768
 20
2561355.897661273
 10
433729.4739449636
 20
2561355.635900853
 10
433725.754301307
 20
2561355.621453783
 10
433722.6598943462
 20
2561354.785268177
 10
433659.2498094034
 20
2561361.60484266
 10
433654.0538113927
 20
2561363.160841127
 10
433648.2850410646
 20
2561364.996952445
 10
433644.4285449299
 20
2561365.79809436
 10
433641.1781352712
 20
2561366.473338182
 10
433639.7427644299
 20
2561366.771519877
 10
433637.3005422106
 20
2561368.446953289
 10
433632.0562753093
 20
2561369.536641103
 10
433614.2741773823
 20
2561374.409488999
 10
433612.3159847437
 20
2561376.026674659
 10
433605.5854162912
 20
2561377.412687737
 10
433601.8643963401
 20
2561378.178949645
 10
433599.2120161838
 20
2561379.61087292
 10
433571.8143566742
 20
2561390.32454388
 10
433568.5669219857
 20
2561390.993806194
 10
433564.8207591206
 20
2561391.725478771
 10
433517.9812090543
 20
2561402.177216234
 10
433513.1218903905
 20
2561404.743001952
 10
433509.7315319599
 20
2561407.426062131
 10
433505.3020249111
 20
2561408.303682584
 10
433500.7007610228
 20
2561409.719040175
 10
433485.9234712935
 20
2561414.81754125
 10
433484.0299636861
 20
2561415.914742958
 10
433479.5488848796
 20
2561418.748849111
 10
433476.8348846435
 20
2561420.063108207
 10
433474.9118378027
 20
2561420.994341399
 10
433471.5684735273
 20
2561422.754838885
 10
433453.5215157756
 20
2561432.875564789
 10
433446.5216525159
 20
2561436.96177454
 10
433442.1742930138
 20
2561438.648710925
 10
433436.872732683
 20
2561440.455522905
 10
433434.45871692
 20
2561440.945441625
 10
433431.1390236953
 20
2561441.619183451
 10
433408.9607827386
 20
2561446.120220714
 10
433403.896984729
 20
2561447.110435874
 10
433376.6605870064
 20
2561445.153490522
 10
433373.4246427093
 20
2561444.656631398
 10
433372.48306658
 20
2561443.934471252
 10
433371.183776723
 20
2561443.649325856
 10
433358.8971732424
 20
2561438.598447132
 10
433355.0357682774
 20
2561437.377543479
 10
433352.2485204198
 20
2561435.231576181
 10
433349.0576970265
 20
2561433.478567144
 10
433346.5488483629
 20
2561430.85343307
 10
433319.8553737473
 20
2561408.984754528
 10
433241.0899237706
 20
2561365.597080212
 10
433214.4028841663
 20
2561354.436436353
 10
433210.8681064704
 20
2561352.578102163
 10
433206.7237034589
 20
2561350.153438527
 10
433205.2079831306
 20
2561349.598895733
 10
433201.7450589345
 20
2561347.772659313
 10
433200.9417421132
 20
2561347.451458563
 10
433180.9652184603
 20
2561343.767173164
 10
433171.3357727674
 20
2561341.903385726
 10
433171.3357727674
 20
2561341.903385726
 10
433171.3357727674
 20
2561341.903385726
 10
433171.3357727674
 20
2561341.903385726
 10
433171.3357727674
 20
2561341.903385726
 10
432971.5263507348
 20
2561307.64526937
 10
432960.1733492542
 20
2561306.948574114
 10
432959.2869930979
 20
2561306.471078244
 10
432955.9609919738
 20
2561304.928105947
 10
432953.1164938481
 20
2561303.719356236
 10
432939.6283729003
 20
2561296.4506656
 10
432936.0127797637
 20
2561294.525902523
 10
432932.5824380012
 20
2561291.71390496
 10
432930.3994782953
 20
2561289.40925266
 10
432911.3471445075
 20
2561268.600972377
 10
432899.9870183179
 20
2561257.666931175
 10
432898.1125781125
 20
2561255.882919801
 10
432896.2576812261
 20
2561254.509139155
 10
432881.1407140677
 20
2561238.988052354
 10
432879.2495962412
 20
2561237.520125009
 10
432876.2989784793
 20
2561235.476291592
 10
432875.3064044632
 20
2561234.417302155
 10
432862.6449713778
 20
2561230.191011412
 10
432859.7832390127
 20
2561229.682182246
 10
432856.0035344035
 20
2561227.61826097
 10
432855.0614276406
 20
2561227.210209929
 10
432842.5662026847
 20
2561225.442777352
 10
432840.2916827854
 20
2561225.656663354
 10
432837.482000006
 20
2561225.157311345
 10
432814.5509332528
 20
2561223.361322944
 10
432807.8274924854
 20
2561221.6144183
 10
432806.6745288604
 20
2561220.358279102
 10
432767.6371315248
 20
2561211.95019068
 10
432738.3007035384
 20
2561195.242290143
 10
432712.4210298737
 20
2561174.691934708
 10
432691.1085360397
 20
2561144.240123105
 10
432690.7281768439
 20
2561143.604176442
 10
432663.9333799326
 20
2561167.872162418
 10
432662.8305023027
 20
2561169.454419951
 10
432621.4559704729
 20
2561214.475365792
 10
432621.2507064672
 20
2561214.855646856
 10
432596.9283252892
 20
2561255.088080383
 10
432570.561303854
 20
2561304.316429136
 10
432541.8634718349
 20
2561340.667762963
 10
432540.6930200936
 20
2561341.012690537
 10
432517.7073054411
 20
2561369.512699465
 10
432514.8965579691
 20
2561375.097398784
 10
432505.0728746881
 20
2561406.329321592
 10
432504.4369480409
 20
2561409.046098942
 10
432503.0416930945
 20
2561414.502643641
 10
432491.3350472368
 20
2561440.790948092
 10
432482.099387006
 20
2561463.685147936
 10
432455.554723017
 20
2561529.486490426
 10
432453.5481913232
 20
2561531.670469035
 10
432453.0912214046
 20
2561532.510771888
 10
432453.0358544622
 20
2561532.823319622
 10
432437.0057945344
 20
2561569.860331609
 10
432436.6662261994
 20
2561571.186721704
 10
432435.2618375866
 20
2561576.424411247
 10
432434.9561538765
 20
2561578.172409609
 10
432428.0602564452
 20
2561603.051136578
 10
432402.515582355
 20
2561721.106785752
 10
432402.8553071541
 20
2561723.407076571
 10
432396.9140037977
 20
2561764.580337152
 10
432394.9300595603
 20
2561769.019050843
 10
432394.497033831
 20
2561770.187391994
 10
432387.2890963265
 20
2561793.165200354
 10
432352.1555055867
 20
2561851.835052835
 10
432308.8765855508
 20
2561912.958511724
 10
432306.6040291204
 20
2561917.126303186
 10
432303.2999416322
 20
2561922.051872766
 10
432282.8723939257
 20
2561960.700899519
 10
432242.7794675364
 20
2562027.885135931
 10
432195.3608373299
 20
2562106.433696905
 10
432170.4972992545
 20
2562147.217908032
 10
432147.4535846133
 20
2562212.213216508
 10
432119.2451974125
 20
2562214.9625976
 10
432115.5307785352
 20
2562215.725270399
 10
432112.9685556861
 20
2562215.077960407
 10
432092.513138573
 20
2562215.627381878
 10
432091.2383436045
 20
2562215.888604157
 10
432088.7261197157
 20
2562216.403376026
 10
432071.4327777159
 20
2562227.163290227
 10
432068.9007288584
 20
2562229.949540514
 10
432063.3656688683
 20
2562232.373275673
 10
432038.2264440597
 20
2562251.060522349
 10
432000.9277853686
 20
2562268.70644254
 10
431954.3771870806
 20
2562289.092359403
 10
431953.3441018381
 20
2562289.300365208
 10
431932.3072892252
 20
2562297.073112694
 10
431929.5493891263
 20
2562298.003585506
 10
431928.3072433168
 20
2562298.447300279
 10
431926.3331189946
 20
2562299.582783261
 10
431899.9786646886
 20
2562308.9446242
 10
431897.9334939386
 20
2562310.11782357
 10
431896.8213632227
 20
2562310.755782919
 10
431876.9379966647
 20
2562321.572258363
 10
431878.2195401498
 20
2562346.522733154
 10
431878.6068175032
 20
2562348.019650166
 10
431879.3010329556
 20
2562350.702902456
 10
431879.9610094656
 20
2562353.253855961
 10
431883.2424471486
 20
2562384.752423378
 10
431884.2178573567
 20
2562391.121383505
 10
431884.8925065794
 20
2562393.77074781
 10
431886.4083899117
 20
2562399.723688431
 10
431886.0686768874
 20
2562401.309814264
 10
431886.3153929163
 20
2562402.280774317
 10
431893.2081175581
 20
2562441.578984037
 10
431894.4789020111
 20
2562446.677735827
 10
431894.8425160647
 20
2562450.907870982
 10
431894.6353430692
 20
2562454.014534146
 10
431894.577806118
 20
2562456.40717941
 10
431894.5884140767
 20
2562457.678677009
 10
431894.7190000232
 20
2562461.543838102
 10
431894.084500124
 20
2562482.594518252
 10
431890.4907577379
 20
2562487.542185705
 10
431889.5874772464
 20
2562489.073931683
 10
431885.737134359
 20
2562493.274538554
 10
431869.8247894515
 20
2562503.010076287
 10
431868.4059485584
 20
2562503.718245437
 10
431865.2010446896
 20
2562505.666740768
 10
431862.0126011249
 20
2562508.052374083
 10
431850.1970082142
 20
2562512.656903611
 10
431846.4957282393
 20
2562513.425874657
 10
431795.9945779338
 20
2562523.015879338
 10
431767.4629139204
 20
2562532.253358229
 10
431739.3167587314
 20
2562543.354645403
 10
431738.0113272831
 20
2562544.204597886
 10
431734.6852048929
 20
2562545.903253538
 10
431733.4379937856
 20
2562546.487481819
 10
431732.089260635
 20
2562547.253841154
 10
431730.6822389499
 20
2562547.831343254
 10
431716.1694408665
 20
2562557.805134452
 10
431715.4436099491
 20
2562558.916151286
 10
431712.2306838014
 20
2562561.422584067
 10
431681.306967127
 20
2562583.213092176
 10
431678.8794780118
 20
2562584.584376418
 10
431677.1813276531
 20
2562586.280994685
 10
431648.8336760361
 20
2562597.015652684
 10
431648.3713748596
 20
2562597.321281968
 10
431642.7470202114
 20
2562601.474729277
 10
431640.2962987775
 20
2562602.509139821
 10
431611.2189544173
 20
2562619.924126854
 10
431609.7535256215
 20
2562621.3961032
 10
431606.1166143677
 20
2562623.14452537
 10
431561.2589226446
 20
2562636.075183407
 10
431561.2589226446
 20
2562636.075183407
 10
431561.2589226446
 20
2562636.075183407
 10
431546.331303326
 20
2562639.4322051
 10
431543.831324525
 20
2562640.083020477
 10
431543.0687942074
 20
2562640.281538146
 10
431517.1027003942
 20
2562648.539377751
 10
431484.8675000771
 20
2562664.847591745
 10
431484.8675000771
 20
2562664.847591745
 10
431301.5609536178
 20
2562750.496678049
 10
431217.5110489547
 20
2562787.311093373
 10
431213.2853861846
 20
2562789.32102327
 10
431210.2533478044
 20
2562790.100957295
 10
431209.1779338447
 20
2562790.447784079
 10
431206.1372342257
 20
2562791.581930432
 10
431019.5061436945
 20
2562861.193203247
 10
430966.236191224
 20
2562882.334692786
 10
430929.3210495802
 20
2562891.627397771
 10
430882.6577162197
 20
2562902.227121942
 10
430855.0738965741
 20
2562900.580753009
 10
430852.6892421723
 20
2562899.82453102
 10
430830.3444295749
 20
2562898.272339103
 10
430827.287787526
 20
2562898.488327447
 10
430823.1048229401
 20
2562897.753037404
 10
430786.6732634479
 20
2562893.379970849
 10
430780.4499097565
 20
2562894.148127389
 10
430775.6394003578
 20
2562893.933913481
 10
430743.4584052579
 20
2562887.429310015
 10
430722.4087958108
 20
2562882.994604704
 10
430701.2577424243
 20
2562875.98829836
 10
430698.7862216973
 20
2562875.773817032
 10
430694.7665825986
 20
2562874.503173136
 10
430692.6559651873
 20
2562873.639595494
 10
430683.7237346089
 20
2562872.819202108
 10
430682.3430270683
 20
2562872.869460381
 10
430650.0979507361
 20
2562873.467822212
 10
430624.6090265135
 20
2562872.769379024
 10
430620.33457596
 20
2562872.344471488
 10
430608.2786218232
 20
2562868.594554275
 10
430605.6353193507
 20
2562867.96219545
 10
430602.1970805853
 20
2562866.334728814
 10
430600.6379435163
 20
2562865.653399293
 10
430576.4527792353
 20
2562856.241729505
 10
430573.561292789
 20
2562854.976844239
 10
430571.3342035867
 20
2562853.613065759
 10
430570.5328113692
 20
2562853.1223171
 10
430568.2471785778
 20
2562852.389410705
 10
430566.3581271266
 20
2562851.231975578
 10
430554.5289079653
 20
2562846.474596902
 10
430553.1677109182
 20
2562845.879247137
 10
430551.9106329179
 20
2562845.506241205
 10
430549.7091288131
 20
2562845.31472511
 10
430534.259667525
 20
2562841.589014219
 10
430531.2192337715
 20
2562841.223845576
 10
430527.9872045125
 20
2562840.622883205
 10
430527.2141048821
 20
2562840.499151024
 10
430493.8596180599
 20
2562841.95773059
 10
430466.8869642902
 20
2562828.684062485
 10
430465.1055139998
 20
2562827.097119508
 10
430450.3454377194
 20
2562817.469828598
 10
430448.9455686641
 20
2562816.619796119
 10
430443.0415981769
 20
2562813.045587339
 10
430442.6957606848
 20
2562811.973996343
 10
430442.5756346494
 20
2562811.883193091
 10
430431.4489274696
 20
2562799.465293673
 10
430429.1686678196
 20
2562796.920420617
 10
430427.3813640437
 20
2562795.188059538
 10
430426.4907891233
 20
2562794.193943846
 10
430425.8741382553
 20
2562793.701014494
 10
430413.8774984144
 20
2562785.145567974
 10
430411.9615556363
 20
2562783.34629118
 10
430411.2796734804
 20
2562783.054787696
 10
430408.6304272607
 20
2562781.464829902
 10
430408.1613305921
 20
2562781.247334733
 10
430400.1511068668
 20
2562779.684544289
 10
430398.4125947379
 20
2562779.617019806
 10
430396.5249921144
 20
2562779.608420374
 10
430395.6571144789
 20
2562779.535956186
 10
430372.2106426297
 20
2562780.902411749
 10
430329.3680827708
 20
2562788.31088355
 10
430327.4712280014
 20
2562788.402488184
 10
430309.246699502
 20
2562792.026667251
 10
430305.4210433272
 20
2562793.045721958
 10
430277.4088818845
 20
2562794.845215171
 10
430274.0207778459
 20
2562794.582714742
 10
430272.3038014121
 20
2562794.449685783
 10
430252.3103100628
 20
2562791.385609052
 10
430249.7956861406
 20
2562791.506784127
 10
430246.2273264902
 20
2562791.886133913
 10
430228.7050343324
 20
2562790.469276848
 10
430225.9023300751
 20
2562790.242647873
 10
430223.479802011
 20
2562790.441141126
 10
430186.9313057931
 20
2562787.37910793
 10
430164.1789606666
 20
2562783.559339291
 10
430114.321613665
 20
2562777.76427287
 10
430105.5816694137
 20
2562777.090198481
 10
430059.9706680498
 20
2562754.573405308
 10
430018.8477108505
 20
2562733.440108668
 10
429987.3080134596
 20
2562726.240811592
 10
429953.5251511186
 20
2562722.812986822
 10
429894.701176203
 20
2562720.669613949
 10
429847.554987566
 20
2562719.081324061
 10
429844.9915513345
 20
2562719.732507334
 10
429840.6317350465
 20
2562719.004502106
 10
429770.3336677704
 20
2562727.215819403
 10
429749.8495882098
 20
2562711.479040292
 10
429744.7281385357
 20
2562707.050181067
 10
429711.0944529586
 20
2562670.332294244
 10
429693.2515606019
 20
2562651.78519013
 10
429679.1907018062
 20
2562637.169386445
 10
429677.0501129521
 20
2562634.499217429
 10
429674.7366782486
 20
2562632.754526717
 10
429642.9845371547
 20
2562601.793003761
 10
429640.4479345331
 20
2562599.540655346
 10
429637.6903604438
 20
2562597.338437835
 10
429613.6190919797
 20
2562569.657294085
 10
429611.7031472256
 20
2562568.51895614
 10
429609.2043152296
 20
2562566.306189044
 10
429607.9416800124
 20
2562565.08168841
 10
429584.5644311799
 20
2562552.333081468
 10
429583.2643581309
 20
2562551.935153154
 10
429581.8829349992
 20
2562551.624321554
 10
429545.5955139019
 20
2562546.25031509
 10
429477.4164934776
 20
2562542.541115899
 10
429451.2139850815
 20
2562538.80851646
 10
429430.7809661098
 20
2562534.253402474
 10
429410.2975552235
 20
2562524.853454401
 10
429385.7437159569
 20
2562513.585564721
 10
429326.4050457495
 20
2562485.07051317
 10
429257.0824506744
 20
2562444.294109067
 10
429202.4082670676
 20
2562411.69579258
 10
429133.5186170129
 20
2562371.850013227
 10
429116.3375409009
 20
2562367.315240108
 10
429076.1075534688
 20
2562366.209907513
 10
429046.0623986606
 20
2562359.470451012
 10
428592.699255343
 20
2562242.660116796
 10
428573.6451105387
 20
2562249.487395923
 10
428509.1203185492
 20
2562266.430944411
 10
428509.0930052226
 20
2562266.440572972
 10
428506.6153519744
 20
2562267.554086761
 10
428503.5373333026
 20
2562268.378759632
 10
428478.2570296614
 20
2562276.024718774
 10
428475.4840507432
 20
2562276.913985531
 10
428474.2883543509
 20
2562277.337657183
 10
428473.0218930483
 20
2562278.209895366
 10
428472.6613758127
 20
2562278.30732945
 10
428468.2606778917
 20
2562282.457711356
 10
428465.4341413509
 20
2562295.812342822
 10
428465.3827365853
 20
2562298.175295163
 10
428462.7093646955
 20
2562304.34908334
 10
428454.0315708436
 20
2562312.89583079
 10
428451.9551180083
 20
2562315.030012774
 10
428427.7471237028
 20
2562327.826874017
 10
428425.3060164505
 20
2562328.712390156
 10
428423.9093744122
 20
2562329.593131965
 10
428404.9421417551
 20
2562337.407792517
 10
428403.8843102805
 20
2562337.702063903
 10
428403.031286889
 20
2562338.093545823
 10
428387.1992129102
 20
2562347.782418758
 10
428311.3390333467
 20
2562390.000217908
  0
LWPOLYLINE
  5
271
330
1F
100
AcDbEntity
  8
0
 48
1.05
100
AcDbPolyline
 90
        2
 70
   129
 43
0.0
 10
428778.2824843761
 20
2545555.873037609
 10
428778.2824843762
 20
2545555.873037609
  0
LWPOLYLINE
  5
273
330
1F
100
AcDbEntity
  8
0
100
AcDbPolyline
 90
        2
 70
     0
 43
0.0
 10
440728.4466211527
 20
2560136.185803746
 10
440732.9185134197
 20
2560067.16057529
  0
LWPOLYLINE
  5
274
330
1F
100
AcDbEntity
  8
0
100
AcDbPolyline
 90
        3
 70
     0
 43
0.0
 10
432915.3709184303
 20
2549469.498210588
 10
432915.3709184303
 20
2549469.498210588
 10
432885.4870981385
 20
2549407.17482628
  0
LWPOLYLINE
  5
275
330
1F
100
AcDbEntity
  8
0
 48
1.05
100
AcDbPolyline
 90
      529
 70
   128
 43
0.0
 10
433319.8553737473
 20
2561408.984754528
 10
433315.567585863
 20
2561126.483025117
 10
433317.9083008615
 20
2561065.450167536
 10
433373.3566756722
 20
2560839.594561494
 10
433399.2388461983
 20
2560757.791816659
 10
433431.6211022096
 20
2560659.765830889
 10
433443.8921838844
 20
2560614.546437624
 10
433448.7496506302
 20
2560596.646491648
 10
433491.9763156441
 20
2560398.020079671
 10
433493.4917456375
 20
2560394.088762649
 10
433493.6428049918
 20
2560391.912850786
 10
433493.816672937
 20
2560390.905083938
 10
433493.9303615769
 20
2560390.420353258
 10
433494.5347995875
 20
2560388.441614987
 10
433500.4133457347
 20
2560356.372767998
 10
433500.443597297
 20
2560355.871335816
 10
433501.2505142279
 20
2560353.009908354
 10
433502.3212006535
 20
2560349.468578772
 10
433502.3458674108
 20
2560349.037840051
 10
433508.1283600981
 20
2560327.003612775
 10
433508.8419705704
 20
2560324.955839965
 10
433509.5049595956
 20
2560322.26052797
 10
433509.5279774825
 20
2560321.690352411
 10
433513.6773650396
 20
2560303.737852272
 10
433513.7558638272
 20
2560303.419755684
 10
433514.7330339199
 20
2560300.533348761
 10
433515.0019763344
 20
2560299.603689071
 10
433515.4126303178
 20
2560298.926558307
 10
433526.2736430006
 20
2560260.811426106
 10
433526.7513672949
 20
2560257.884377155
 10
433526.7589751253
 20
2560256.405450389
 10
433532.9713381605
 20
2560228.588608978
 10
433533.7140908304
 20
2560226.095320794
 10
433534.0479185279
 20
2560224.656485678
 10
433534.3740277109
 20
2560223.665180491
 10
433541.5994760878
 20
2560195.821060807
 10
433541.8016322969
 20
2560193.075614413
 10
433552.8824208312
 20
2560156.618735056
 10
433563.4320448828
 20
2560121.395136077
 10
433563.4604287328
 20
2560120.624469168
 10
433573.8689217029
 20
2560087.647169181
 10
433575.5810523546
 20
2560082.223049787
 10
433583.5362280465
 20
2560056.546724247
 10
433583.8965044796
 20
2560055.044101834
 10
433596.3848876223
 20
2560017.786353265
 10
433606.5379469387
 20
2559979.39004799
 10
433615.09630088
 20
2559946.49368029
 10
433615.6411625839
 20
2559945.62156874
 10
433617.4098848503
 20
2559942.276393517
 10
433628.4582139367
 20
2559908.213933051
 10
433640.7300956828
 20
2559873.783702025
 10
433652.2231350239
 20
2559831.095625825
 10
433653.6127182677
 20
2559828.508835026
 10
433665.7209897192
 20
2559790.015667398
 10
433665.8034796541
 20
2559789.204241794
 10
433676.2041387485
 20
2559755.523159176
 10
433676.3766782849
 20
2559754.958843335
 10
433688.888570233
 20
2559721.893787209
 10
433697.701858112
 20
2559690.782029758
 10
433698.434368727
 20
2559689.030718125
 10
433698.8251330867
 20
2559688.007546996
 10
433699.4210968907
 20
2559686.722725858
 10
433709.4989099976
 20
2559655.268187176
 10
433709.5837211466
 20
2559652.861543947
 10
433719.9958296561
 20
2559615.28422305
 10
433728.3278066111
 20
2559583.35264325
 10
433728.5290402427
 20
2559581.442030558
 10
433738.7247719269
 20
2559541.543670898
 10
433745.9765144589
 20
2559502.861909608
 10
433746.0316168427
 20
2559502.08888168
 10
433746.2878113913
 20
2559501.195633927
 10
433746.3632651865
 20
2559500.131177306
 10
433749.2413815358
 20
2559483.95331697
 10
433754.5280314738
 20
2559454.23721071
 10
433754.5511935902
 20
2559453.759099711
 10
433761.6133812963
 20
2559415.408780434
 10
433761.78347013
 20
2559410.995996815
 10
433761.8186071634
 20
2559410.084465525
 10
433768.4396795929
 20
2559373.61349897
 10
433772.8988090169
 20
2559342.921574561
 10
433773.6328738077
 20
2559341.266534613
 10
433773.6653580533
 20
2559339.000670849
 10
433779.5454853219
 20
2559324.186387171
 10
433780.3835834662
 20
2559322.074901411
 10
433780.8317488335
 20
2559321.450124441
 10
433782.6835941021
 20
2559317.765799149
 10
433795.0989303648
 20
2559298.087536956
 10
433795.8413607438
 20
2559297.442059208
 10
433797.6610455307
 20
2559294.742580786
 10
433815.7604358989
 20
2559269.493159944
 10
433833.5276855215
 20
2559244.83104001
 10
433853.4041162678
 20
2559220.062226196
 10
433857.9511773001
 20
2559214.198770326
 10
433859.0513204425
 20
2559211.88513322
 10
433876.4588065136
 20
2559185.548423856
 10
433877.6719687952
 20
2559185.204173514
 10
433892.7449148671
 20
2559166.133692404
 10
433900.7072868517
 20
2559156.059622821
 10
433901.6998475087
 20
2559154.713011661
 10
433918.9146959178
 20
2559132.318803736
 10
433921.3871003717
 20
2559131.221377153
 10
433942.1435559837
 20
2559101.277992127
 10
433944.1519873644
 20
2559099.37254151
 10
433946.3217010361
 20
2559096.645905197
 10
433975.3851982222
 20
2559061.471488684
 10
433974.674453064
 20
2559060.130554987
 10
433989.9315457649
 20
2559041.522863894
 10
433991.8383317683
 20
2559038.761249021
 10
433992.1336788338
 20
2559038.239770095
 10
434012.2650206564
 20
2559015.816467302
 10
434013.7585612018
 20
2559014.152886494
 10
434033.6622697972
 20
2558992.638195181
 10
434057.1945483756
 20
2558963.846664293
 10
434080.2745146044
 20
2558941.231947978
 10
434081.2440838116
 20
2558939.933450201
 10
434082.9960228474
 20
2558938.194822848
 10
434092.1789077657
 20
2558925.531334551
 10
434107.2955496964
 20
2558907.820584686
 10
434128.8923324994
 20
2558886.257726273
 10
434130.394160227
 20
2558883.026911344
 10
434130.4513390625
 20
2558882.931975946
 10
434150.8415118121
 20
2558858.366763402
 10
434173.5575835534
 20
2558828.151237433
 10
434192.0701534148
 20
2558804.1642355
 10
434193.1417155115
 20
2558802.58690916
 10
434205.6179209802
 20
2558781.652676239
 10
434214.744734838
 20
2558758.785374459
 10
434216.1640652185
 20
2558753.813723424
 10
434216.1758244456
 20
2558752.71731964
 10
434227.4439549266
 20
2558712.824822603
 10
434237.5568201561
 20
2558678.390913139
 10
434237.5600351521
 20
2558678.384442361
 10
434238.5007446639
 20
2558676.491047151
 10
434251.5096486597
 20
2558632.151966383
 10
434259.5983723253
 20
2558602.006515985
 10
434259.7398137917
 20
2558601.474112563
 10
434260.7692328688
 20
2558599.496719379
 10
434261.1610003539
 20
2558596.554695725
 10
434276.4059664719
 20
2558551.882149334
 10
434276.4159707374
 20
2558549.236318743
 10
434285.5594449558
 20
2558512.958692079
 10
434300.1320831183
 20
2558465.216870961
 10
434300.2911447318
 20
2558463.394318486
 10
434312.5487689822
 20
2558422.507387499
 10
434325.7533310434
 20
2558377.067641511
 10
434326.8123004165
 20
2558372.633531952
 10
434341.8909118747
 20
2558317.081056335
 10
434348.7829356315
 20
2558286.099478067
 10
434355.3216010877
 20
2558258.012767567
 10
434371.0756539259
 20
2558197.967131582
 10
434379.3604638746
 20
2558151.336438299
 10
434379.9310418613
 20
2558149.888432346
 10
434380.5314897549
 20
2558147.506653263
 10
434395.979746442
 20
2558078.321529588
 10
434409.9348746526
 20
2558021.386931344
 10
434423.8348936626
 20
2557966.901070537
 10
434428.2581888786
 20
2557933.426023926
 10
434428.9068343551
 20
2557929.263708558
 10
434442.9854674221
 20
2557834.871101489
 10
434445.71294787
 20
2557815.17069403
 10
434454.2769296299
 20
2557755.398705249
 10
434461.9782442708
 20
2557702.885966553
 10
434469.4596905524
 20
2557650.883108991
 10
434478.7989548589
 20
2557586.82021826
 10
434487.4658687525
 20
2557534.298810889
 10
434496.641060919
 20
2557462.857957773
 10
434507.4956606175
 20
2557382.349478977
 10
434507.5974519931
 20
2557381.089712779
 10
434513.8075083473
 20
2557341.68525905
 10
434514.0795193528
 20
2557338.199629147
 10
434514.1342803885
 20
2557337.497908005
 10
434514.40060537
 20
2557336.689272878
 10
434514.40060537
 20
2557336.689272878
 10
434521.4623325157
 20
2557315.385418479
 10
434522.4925929173
 20
2557312.277711411
 10
434523.1521351714
 20
2557311.015567631
 10
434525.4233812275
 20
2557305.474336756
 10
434525.4551550143
 20
2557305.019899608
 10
434550.2329848046
 20
2557260.778811402
 10
434579.8031120803
 20
2557216.46330839
 10
434613.0555636629
 20
2557160.086285255
 10
434642.0857773245
 20
2557114.774504646
 10
434671.250081156
 20
2557068.366498826
 10
434701.9968360383
 20
2557021.605525164
 10
434702.7813345568
 20
2557019.040780668
 10
434714.4785804834
 20
2557004.009279355
 10
434735.3965689953
 20
2556977.128800213
 10
434736.6080597157
 20
2556974.232958053
 10
434759.4837818093
 20
2556943.690387727
 10
434763.5079718895
 20
2556940.225404447
 10
434793.5609907373
 20
2556897.696133104
 10
434830.6904250626
 20
2556854.009878607
 10
434832.1508604949
 20
2556851.946201767
 10
434861.1094469436
 20
2556811.702469566
 10
435067.2816396668
 20
2556511.273887619
 10
435098.0337718275
 20
2556314.969836254
 10
435101.4998852238
 20
2556258.483273515
 10
435101.9669101132
 20
2556234.149581469
 10
435103.0881571268
 20
2556196.523739228
 10
435103.0881571268
 20
2556196.523739228
 10
435103.0881571268
 20
2556196.523739228
 10
435105.5677083009
 20
2556068.380400879
 10
435105.9018353775
 20
2556065.007683616
 10
435105.5677083009
 20
2556068.380400879
 10
435105.5677083009
 20
2556068.380400879
 10
435105.9018353775
 20
2556065.007683616
 10
435110.0050441972
 20
2555992.027403786
 10
435109.9773927519
 20
2555989.85024617
 10
435108.3612443082
 20
2555923.888013293
 10
435097.8512139733
 20
2555831.027016932
 10
435097.618198255
 20
2555824.828746644
 10
435093.5825362717
 20
2555802.099900626
 10
435060.0152318359
 20
2555601.86989624
 10
435052.7251382611
 20
2555543.289440951
 10
435037.9063209945
 20
2555459.977401551
 10
435037.4558447403
 20
2555455.663588417
 10
435029.0340181311
 20
2555383.767562833
 10
435021.181039349
 20
2555331.230841949
 10
435021.2990930723
 20
2555329.032029335
 10
435014.6508566622
 20
2555284.603749051
 10
435014.7208604442
 20
2555246.427110521
 10
435020.1535659315
 20
2555184.001578736
 10
435025.2956436484
 20
2555114.357933407
 10
435030.7751641159
 20
2555037.570582441
 10
435032.3206769888
 20
2555010.834715105
 10
435047.1903491714
 20
2554778.224910063
 10
435047.686265612
 20
2554776.278998848
 10
435047.7325693935
 20
2554774.422487018
 10
435048.1719235395
 20
2554771.613320343
 10
435052.7128652567
 20
2554690.186218001
 10
435052.7608987619
 20
2554688.463267317
 10
435058.3961948642
 20
2554626.439770875
 10
435065.3444829582
 20
2554553.141299714
 10
435069.4376786216
 20
2554481.271397833
 10
435072.2528055142
 20
2554416.214755497
 10
435079.3576313344
 20
2554352.982053513
 10
435079.9703597703
 20
2554297.140657378
 10
435078.2986360332
 20
2554244.589612844
 10
435072.6849417916
 20
2554185.264333754
 10
435069.1376841402
 20
2554155.07254497
 10
435066.0057916837
 20
2554134.303896721
 10
435065.8857539939
 20
2554134.200631763
 10
435058.5302059739
 20
2554087.289926263
 10
435051.5655830434
 20
2554044.052014623
 10
435039.6789314475
 20
2553989.869795941
 10
435039.7565135799
 20
2553987.593044154
 10
435032.0532151096
 20
2553921.950838644
 10
435018.7918567871
 20
2553858.155946356
 10
435008.2934770497
 20
2553783.83763073
 10
434993.8071364117
 20
2553704.578823329
 10
434982.2422228882
 20
2553636.44523409
 10
434973.7027698351
 20
2553576.512513892
 10
434960.3090978274
 20
2553498.230236155
 10
434950.3797377161
 20
2553453.110168784
 10
434950.405758949
 20
2553449.706798219
 10
434932.5691542389
 20
2553382.255329977
 10
434931.8529422725
 20
2553381.035851783
 10
434929.2562065438
 20
2553370.755030727
 10
434918.2493139019
 20
2553327.17743804
 10
434916.5183163554
 20
2553323.32084172
 10
434901.6503094385
 20
2553264.817581831
 10
434892.4803626021
 20
2553217.157592054
 10
434892.436661608
 20
2553215.821177012
 10
434886.386263586
 20
2553150.980247358
 10
434881.9756842897
 20
2553088.606368917
 10
434873.2174352954
 20
2553010.129330484
 10
434866.3898206056
 20
2552929.672202622
 10
434861.8463744835
 20
2552863.430907066
 10
434854.5080649357
 20
2552788.047840796
 10
434847.3630490989
 20
2552699.992180636
 10
434843.6128345005
 20
2552630.794235179
 10
434843.6231605087
 20
2552628.650360239
 10
434838.0982847972
 20
2552536.904646176
 10
434835.8184195142
 20
2552480.262704822
 10
434835.8350135561
 20
2552478.460835147
 10
434831.0704370254
 20
2552406.302156462
 10
434830.1820567344
 20
2552343.621273343
 10
434830.1935297667
 20
2552342.614447542
 10
434826.6840800357
 20
2552254.427880328
 10
434826.7198733949
 20
2552251.516616013
 10
434824.8538816459
 20
2552174.840221506
 10
434824.8756698157
 20
2552173.431910121
 10
434822.3448826769
 20
2552097.529541941
 10
434822.1813214098
 20
2552027.912050223
 10
434822.3477669242
 20
2552017.816454001
 10
434822.3782206455
 20
2552015.96957423
 10
434822.4471615178
 20
2552011.434986642
 10
434822.5142836807
 20
2552006.949685674
 10
434822.5676771245
 20
2552003.38204805
 10
434822.6147441634
 20
2552000.237119641
 10
434821.9446642729
 20
2551997.128206346
 10
434820.920020969
 20
2551992.374221834
 10
434818.0518077865
 20
2551985.959995361
 10
434815.1584654663
 20
2551982.788722923
 10
434813.1115457257
 20
2551980.54515397
 10
434782.3987041586
 20
2551953.717842764
 10
434781.4675874746
 20
2551953.170089109
 10
434775.8972749723
 20
2551938.55983544
 10
434774.114132009
 20
2551934.030531012
 10
434773.6323308339
 20
2551932.090888063
 10
434773.5151875031
 20
2551931.424355323
 10
434773.2903253752
 20
2551896.316178386
 10
434773.4049599164
 20
2551893.649771757
 10
434773.595089189
 20
2551889.227174188
 10
434773.7433323795
 20
2551885.778805299
 10
434775.9829344068
 20
2551827.923932384
 10
434776.1133126286
 20
2551825.667649897
 10
434776.2499349502
 20
2551823.306515817
 10
434784.4542391317
 20
2551763.658315775
 10
434784.5569113512
 20
2551761.446009589
 10
434784.8139499769
 20
2551755.907413088
 10
434784.9161309087
 20
2551753.705651098
 10
434784.9502598005
 20
2551752.97030455
 10
434792.882617221
 20
2551726.271305973
 10
434794.0443560629
 20
2551721.606273124
 10
434794.4371737217
 20
2551719.710663738
 10
434815.6753096442
 20
2551663.750158454
 10
434817.5215912686
 20
2551660.761767035
 10
434838.6686307089
 20
2551597.186880994
 10
434838.680424946
 20
2551593.096185557
 10
434864.3897141299
 20
2551478.022734554
 10
434872.2821761497
 20
2551384.988881562
 10
434876.9987010574
 20
2551281.324739449
 10
434865.9896404444
 20
2551165.058363777
 10
434856.8273736078
 20
2551108.61481048
 10
434860.4470711552
 20
2550985.669510603
 10
434847.9042825741
 20
2550764.297851217
 10
434785.3548861079
 20
2550589.334238039
 10
434744.5094093031
 20
2550459.077446935
 10
434696.9018315298
 20
2550329.977854429
 10
434677.2510227303
 20
2550281.990440154
 10
434649.3232133497
 20
2550212.43195915
 10
434611.0847193915
 20
2550120.385830171
 10
434572.6299976646
 20
2550023.592680828
 10
434539.5414587825
 20
2549943.190783061
 10
434514.2313758502
 20
2549880.858898802
 10
434467.3930837161
 20
2549762.045618834
 10
434446.1791315493
 20
2549710.374267809
 10
434411.253904255
 20
2549621.57889569
 10
434382.037973553
 20
2549549.254011256
 10
434361.7459267991
 20
2549496.530682097
 10
434338.1333065015
 20
2549432.981196016
 10
434314.3944745203
 20
2549374.056002323
 10
434286.6586521709
 20
2549296.129964317
 10
434226.1814422982
 20
2549299.194810466
 10
434190.5056224582
 20
2549302.909658151
 10
434137.4087142845
 20
2549311.631714147
 10
434070.8146352711
 20
2549321.750259974
 10
434003.9257555171
 20
2549334.154499641
 10
433963.4168416515
 20
2549339.761753124
 10
433931.7750234434
 20
2549345.637719282
 10
433929.4686471639
 20
2549345.648438339
 10
433897.7591657098
 20
2549348.540898108
 10
433856.7551236379
 20
2549352.515867861
 10
433811.7691930515
 20
2549360.266754325
 10
433782.3899483555
 20
2549364.672640294
 10
433779.3151643452
 20
2549364.686927361
 10
433738.8971560018
 20
2549370.11604548
 10
433693.5100508166
 20
2549372.747273606
 10
433668.7882460128
 20
2549367.681892253
 10
433653.0247980941
 20
2549364.501266344
 10
433579.8076048559
 20
2549342.584975501
 10
433540.8054551718
 20
2549333.028276386
 10
433502.4776182364
 20
2549323.191780192
 10
433209.9885108135
 20
2549254.405726609
 10
433151.6065727874
 20
2549296.513288485
 10
433077.6285834267
 20
2549337.073774081
 10
433015.0290108218
 20
2549352.391035604
 10
432979.1378135503
 20
2549371.701599583
 10
432915.5619106449
 20
2549396.438405469
 10
432900.26200811
 20
2549401.900324542
 10
432885.4870981385
 20
2549407.17482628
 10
432861.2162289942
 20
2549415.839294744
 10
432795.0951750575
 20
2549443.659317472
 10
432693.6124539385
 20
2549480.580595458
 10
432651.0229903152
 20
2549500.587058757
 10
432614.5138793775
 20
2549514.373811502
 10
432419.0300581463
 20
2549548.357037946
 10
432344.6537395475
 20
2549559.356821037
 10
432112.6987481838
 20
2549559.580023949
 10
432069.4186414779
 20
2549559.62167102
 10
431863.0013327395
 20
2549562.127002984
 10
431809.9561054649
 20
2549562.373572082
 10
431711.8907052885
 20
2549565.27478917
 10
431666.7551165513
 20
2549553.792828175
 10
431574.7739113144
 20
2549495.239763001
 10
431507.645800224
 20
2549454.439655423
 10
431453.057212825
 20
2549426.127670952
 10
431390.9865569486
 20
2549413.73512765
 10
431309.423651056
 20
2549402.645928776
 10
431164.1889696537
 20
2549379.858547569
 10
431075.6568791688
 20
2549372.284662241
 10
431064.7805256914
 20
2549378.046215247
 10
431038.0800925704
 20
2549392.19033944
 10
430964.1035718424
 20
2549444.559359975
 10
430890.5538306532
 20
2549492.939285265
 10
430812.3401573417
 20
2549544.686749635
 10
430724.2065219547
 20
2549605.149666584
 10
430657.9572912622
 20
2549651.88501596
 10
430533.3899235505
 20
2549736.979484057
 10
430488.5787534138
 20
2549764.055287775
 10
430470.909246971
 20
2549766.913615555
 10
430422.2532064517
 20
2549767.139825779
 10
430413.987729907
 20
2549764.573195446
 10
430366.5760939611
 20
2549749.850842984
 10
430274.7583630536
 20
2549726.253509236
 10
430190.3671831662
 20
2549706.501120322
 10
430115.5699283756
 20
2549690.224686204
 10
429978.809027441
 20
2549647.99625209
 10
429937.359250634
 20
2549631.612229081
 10
429895.5676531287
 20
2549609.332363775
 10
429838.4538244364
 20
2549583.890268745
 10
429787.2931688142
 20
2549585.44394468
 10
429714.998083122
 20
2549599.096888544
 10
429662.593206861
 20
2549601.782431107
 10
429571.4481975636
 20
2549606.223039112
 10
429481.6844235056
 20
2549609.416784472
 10
429420.6128311194
 20
2549609.672776318
 10
429366.1418616355
 20
2549617.849962768
 10
429291.0198199606
 20
2549638.786972227
 10
429201.8552627189
 20
2549664.720910175
 10
429179.8294003339
 20
2549671.302935807
 10
429133.9010475505
 20
2549685.027906407
 10
429104.607283264
 20
2549694.853612751
 10
428990.3510657003
 20
2549733.178074311
 10
428920.1860398032
 20
2549769.499861874
 10
428906.0163269171
 20
2549776.835049353
 10
428805.6654099656
 20
2549831.883600196
 10
428618.3642532356
 20
2549932.141394899
 10
428619.0107027315
 20
2549936.819781466
 10
428577.6145850475
 20
2549768.531035298
 10
428576.4279798467
 20
2549522.334908405
 10
428588.8316205709
 20
2549472.210398429
 10
428604.0082711941
 20
2549423.957397486
 10
428603.9881770771
 20
2549419.634708612
 10
428610.3193689014
 20
2549371.819020158
 10
428634.8149714689
 20
2549331.678888447
 10
428667.8476604911
 20
2549260.594302797
 10
428688.2640047298
 20
2549228.553445455
 10
428691.0649599311
 20
2549220.544587327
 10
428695.5283936308
 20
2549203.27368635
 10
428695.8886114541
 20
2549199.516690976
 10
428699.5544680416
 20
2549186.155200845
 10
428709.2841328931
 20
2549134.785269659
 10
428718.196796894
 20
2549086.677710594
 10
428737.7536891662
 20
2549023.964047798
 10
428760.1598566314
 20
2548952.110638495
 10
428760.1094319307
 20
2548941.259539969
 10
428756.8650282663
 20
2548911.619860875
 10
428758.6822754444
 20
2548890.970428401
 10
428760.4054666559
 20
2548871.389821281
 10
428760.4018146658
 20
2548870.603912012
 10
428769.6027772697
 20
2548810.067554722
 10
428794.2232068947
 20
2548722.813746799
 10
428803.3457597235
 20
2548690.33238871
 10
428816.4176067644
 20
2548619.044407675
 10
428841.005252958
 20
2548522.84543685
 10
428864.3952661661
 20
2548453.758822494
 10
428902.3898610316
 20
2548392.601546487
 10
428943.8175297731
 20
2548337.08322549
 10
428959.1555556157
 20
2548305.880055128
 10
428984.6408398002
 20
2548254.033639413
 10
429022.5315302237
 20
2548167.370419976
 10
429027.1443024161
 20
2548131.307254433
 10
429029.9508178978
 20
2548122.485441453
 10
429040.9678048817
 20
2548087.855381735
 10
429074.2333563009
 20
2547995.732729515
 10
429088.6459316291
 20
2547948.060005368
 10
429112.3520119763
 20
2547856.103888012
 10
429130.7984162958
 20
2547809.049049567
 10
429159.7862274858
 20
2547752.904406608
 10
429172.8343064892
 20
2547707.584865562
 10
429174.1589752152
 20
2547695.148535709
 10
429177.9549595194
 20
2547659.510861082
 10
429182.8348030938
 20
2547624.393543011
 10
429183.1339683971
 20
2547614.057735164
 10
429184.0629425382
 20
2547581.962776302
 10
429179.7021620999
 20
2547537.698811123
 10
429180.7853157535
 20
2547508.699970221
 10
429187.1948871147
 20
2547500.752066268
 10
429207.0375691963
 20
2547486.741594357
 10
429245.6460301063
 20
2547451.467331079
 10
429256.2305493857
 20
2547428.221504547
 10
429262.7945962117
 20
2547362.093158522
 10
429262.968940793
 20
2547311.715935681
 10
429256.386365571
 20
2547292.075504227
 10
429223.6303594235
 20
2547219.265487167
 10
429206.0165017701
 20
2547184.10190198
 10
429192.3806159927
 20
2547139.175731111
 10
429174.6582136661
 20
2547084.228940232
 10
429138.671943869
 20
2546984.338814617
 10
429108.6028929878
 20
2546911.639546221
 10
429096.1538322258
 20
2546866.890942212
 10
429098.0567730293
 20
2546808.151519008
 10
429096.6915452379
 20
2546756.131274956
 10
429088.7707733047
 20
2546692.668845794
 10
429068.5541475922
 20
2546625.937191846
 10
429055.5998118314
 20
2546574.327643933
 10
429034.3562107116
 20
2546495.701497771
 10
429023.0920027432
 20
2546462.211830042
 10
429022.7299254889
 20
2546459.653883255
 10
429020.2558744968
 20
2546442.175594547
 10
429017.6821851384
 20
2546423.993396283
 10
429014.9058903788
 20
2546404.379863052
 10
429012.9935549878
 20
2546389.770548231
 10
429010.1752638576
 20
2546369.654780654
 10
429009.4911069211
 20
2546363.013543841
 10
429002.014965809
 20
2546305.899451997
 10
428990.1712432463
 20
2546256.946881722
 10
428970.3725977353
 20
2546188.224215081
 10
428964.568209055
 20
2546169.720420484
 10
428952.6267409025
 20
2546131.652247254
 10
428931.7352171397
 20
2546067.21454111
 10
428902.0103818879
 20
2546001.644758239
 10
428886.1189695998
 20
2545942.691930249
 10
428880.9233758075
 20
2545927.199196293
 10
428856.8778242535
 20
2545855.497799333
 10
428843.2572710821
 20
2545811.722968054
 10
428824.4697182121
 20
2545762.187486884
 10
428824.4697182121
 20
2545762.187486884
 10
428809.9413148652
 20
2545730.550669679
 10
428809.8508129042
 20
2545730.356312783
 10
428689.8663720488
 20
2545472.684509827
 10
428688.435165731
 20
2545469.610932039
 10
428594.3673905515
 20
2545269.739377711
 10
428581.9384584576
 20
2545251.165265821
 10
428557.4697304928
 20
2545226.732686865
 10
428540.7455385253
 20
2545217.730891793
 10
428481.8790333468
 20
2545165.690217909
  0
LWPOLYLINE
  5
276
330
1F
100
AcDbEntity
  8
0
 48
1.05
100
AcDbPolyline
 90
        6
 70
   128
 43
0.0
 10
428697.21
 20
2550269.92
 10
428697.21
 20
2550269.92
 10
428743.9271757903
 20
2550251.915656921
 10
428680.5124080081
 20
2550162.002275843
 10
428635.0256541957
 20
2550052.7207672
 10
428619.0107027315
 20
2549936.819781466
  0
LWPOLYLINE
  5
277
330
1F
100
AcDbEntity
  8
0
 48
1.05
100
AcDbPolyline
 90
       69
 70
   128
 43
0.0
 10
445671.0759128109
 20
2555787.730753625
 10
445750.8269281893
 20
2555880.189606738
 10
445768.8906646735
 20
2555876.231959431
 10
445797.6873815556
 20
2555870.513580891
 10
445829.538320939
 20
2555864.168699608
 10
446124.6252563713
 20
2555790.426061024
 10
446141.9858248794
 20
2555770.794233592
 10
446155.9434556465
 20
2555753.967501641
 10
446181.3983080319
 20
2555728.545343236
 10
446197.3133613278
 20
2555712.849734286
 10
446354.446026029
 20
2555557.883689707
 10
446368.9898442743
 20
2555546.422232767
 10
446399.0699578327
 20
2555525.020595161
 10
446436.0252677942
 20
2555491.960296427
 10
446451.3902001113
 20
2555481.727676985
 10
446479.9709281666
 20
2555469.576938398
 10
446495.0150628603
 20
2555461.077803225
 10
446531.7275237056
 20
2555440.002496861
 10
446568.620801985
 20
2555417.32057718
 10
446583.5010492642
 20
2555409.769303297
 10
446612.3683476054
 20
2555399.309031273
 10
446622.6766543864
 20
2555392.531159149
 10
446633.0842433694
 20
2555385.363098954
 10
446635.7878085889
 20
2555381.494159045
 10
446652.4142970079
 20
2555363.095199136
 10
446678.7616196764
 20
2555336.439415262
 10
446700.0677379519
 20
2555317.411176958
 10
446705.852772385
 20
2555309.56660726
 10
446733.0057010045
 20
2555288.150282076
 10
446766.0162039139
 20
2555270.208628167
 10
446784.4123457665
 20
2555259.560211963
 10
446802.3641888845
 20
2555250.556922572
 10
446806.7167097621
 20
2555247.131951837
 10
446821.6503367545
 20
2555236.345073547
 10
446830.2174215956
 20
2555230.156898793
 10
446844.8218829131
 20
2555218.190625264
 10
446847.9012295368
 20
2555215.685036373
 10
446856.7021706859
 20
2555211.647446286
 10
446864.3176670664
 20
2555206.279104186
 10
446893.8118932554
 20
2555187.991965844
 10
446924.4998525571
 20
2555177.178829482
 10
446929.2000667469
 20
2555174.151249059
 10
446940.9914488825
 20
2555166.702283692
 10
446949.7577535857
 20
2555161.642956212
 10
446979.0760768659
 20
2555141.866451624
 10
447005.6068995301
 20
2555126.014335532
 10
447017.8762802937
 20
2555119.980976097
 10
447025.7633580364
 20
2555117.336285321
 10
447029.044348284
 20
2555115.690794288
 10
447030.4384011096
 20
2555115.339088859
 10
447033.9810765429
 20
2555113.267699502
 10
447073.4261936232
 20
2555099.682101299
 10
447115.3540007573
 20
2555085.285368605
 10
447144.6237159971
 20
2555071.278958044
 10
447160.6977434257
 20
2555061.923640825
 10
447173.9982530356
 20
2555055.990260433
 10
447201.4425698886
 20
2555045.521110612
 10
447254.0316222018
 20
2555031.276075245
 10
447299.9636939021
 20
2555013.663443215
 10
447300.3838366529
 20
2555013.547016554
 10
447762.8009037131
 20
2554926.353470963
 10
447784.2231117072
 20
2554921.488264883
 10
447797.9712206571
 20
2554914.879039747
 10
447799.7337373024
 20
2554913.99509727
 10
447818.9050027078
 20
2554903.826892094
 10
447851.3272994002
 20
2554881.717774583
 10
447882.994657704
 20
2554850.287252418
 10
447897.4569149186
 20
2554859.992773071
 10
447937.9990333469
 20
2554922.000217909
  0
LWPOLYLINE
  5
278
330
1F
100
AcDbEntity
  8
0
 48
1.05
100
AcDbPolyline
 90
        2
 70
   128
 43
0.0
 10
445183.77
 20
2558543.46
 10
445416.3100247287
 20
2558444.8374998
  0
LWPOLYLINE
  5
279
330
1F
100
AcDbEntity
  8
0
100
AcDbPolyline
 90
        2
 70
     0
 43
0.0
 10
435103.0881571268
 20
2556196.523739228
 10
435047.5409418358
 20
2556202.647086291
  0
LWPOLYLINE
  5
27A
330
1F
100
AcDbEntity
  8
0
 48
1.05
100
AcDbPolyline
 90
      238
 70
   128
 43
0.0
 10
439260.1790333467
 20
2553178.750217909
 10
439245.887884341
 20
2553064.484841808
 10
439226.6727453931
 20
2553067.382247687
 10
439200.5900640345
 20
2553070.553193687
 10
439200.1897601637
 20
2553070.643891201
 10
439174.9372756065
 20
2553071.788479135
 10
439162.1074293597
 20
2553074.612760519
 10
439156.3797201576
 20
2553076.117146715
 10
439146.0648576084
 20
2553079.526427799
 10
439128.1810754523
 20
2553087.885853777
 10
439102.8293671165
 20
2553101.669356243
 10
439079.2363354001
 20
2553117.243590866
 10
439060.0951538107
 20
2553130.577902892
 10
439035.9273875197
 20
2553147.756582279
 10
439021.7219661128
 20
2553156.85112578
 10
438572.1518512423
 20
2553302.316863647
 10
438564.9397517975
 20
2553306.120130545
 10
438551.245454674
 20
2553313.888470561
 10
438548.0611285719
 20
2553315.54596602
 10
438547.263533132
 20
2553316.760634216
 10
438510.3155210331
 20
2553343.102227483
 10
438463.9385755344
 20
2553389.284956721
 10
438440.9601130567
 20
2553409.764085356
 10
438418.8009773068
 20
2553428.77531068
 10
438395.2190656537
 20
2553449.157663982
 10
438376.2895014192
 20
2553464.249072309
 10
438355.121751158
 20
2553480.960294902
 10
438319.5938716986
 20
2553504.174526687
 10
438288.829879525
 20
2553517.388347554
 10
438268.5734800822
 20
2553525.642458712
 10
438267.2692837403
 20
2553525.664818273
 10
438263.1708395122
 20
2553527.623093996
 10
438252.3138599146
 20
2553534.6061889
 10
438251.9491695787
 20
2553534.856033292
 10
438249.5983698181
 20
2553535.823286581
 10
438247.1144920313
 20
2553537.96634192
 10
438238.1560333068
 20
2553546.439573844
 10
438226.4975625196
 20
2553558.479511126
 10
438213.2403749703
 20
2553576.253323841
 10
438211.3981021992
 20
2553579.273343193
 10
438197.8013098436
 20
2553597.504032783
 10
438188.3177679418
 20
2553611.844752169
 10
438187.0090734075
 20
2553613.776846965
 10
438186.6878823811
 20
2553614.119313229
 10
438176.3921895739
 20
2553628.432123185
 10
438166.6089624811
 20
2553638.490999644
 10
438149.6958400794
 20
2553652.469378073
 10
438132.8042444041
 20
2553662.886085975
 10
438130.2064898226
 20
2553664.012637402
 10
438127.6038550907
 20
2553666.053854327
 10
438108.4636501826
 20
2553680.182097827
 10
438085.9078017214
 20
2553699.414508701
 10
438070.414035269
 20
2553711.197397339
 10
438052.8989539289
 20
2553723.31917058
 10
438029.5634755789
 20
2553736.654054828
 10
437999.5907807031
 20
2553756.59798895
 10
437996.8133063607
 20
2553758.813503081
 10
437984.2877116089
 20
2553772.030927289
 10
437972.5768182053
 20
2553779.974025274
 10
437952.363949645
 20
2553789.089415601
 10
437933.9369272142
 20
2553796.67602997
 10
437914.1118130503
 20
2553804.488407646
 10
437894.2806471099
 20
2553811.676834031
 10
437866.6137968751
 20
2553821.300199729
 10
437836.3500938879
 20
2553832.674194484
 10
437807.6143424961
 20
2553843.305171899
 10
437787.7022835109
 20
2553853.880119397
 10
437752.6909194583
 20
2553871.058392715
 10
437725.6309764528
 20
2553884.261226276
 10
437703.1180794554
 20
2553894.766414174
 10
437680.2435170461
 20
2553903.96677495
 10
437663.7240640824
 20
2553908.769013183
 10
437661.2919146395
 20
2553909.531945356
 10
437646.3646640716
 20
2553912.187663271
 10
437646.0346884517
 20
2553912.001212056
 10
437610.3866399082
 20
2553918.516898848
 10
437584.3880947813
 20
2553923.134685153
 10
437552.3130869515
 20
2553929.766170945
 10
437526.0893529945
 20
2553936.897512565
 10
437512.0809537913
 20
2553940.473249073
 10
437495.6142146246
 20
2553947.462548186
 10
437472.359299647
 20
2553958.100544588
 10
437454.1556444761
 20
2553965.136071584
 10
437453.0785565496
 20
2553965.132998143
 10
437432.067136546
 20
2553975.316009753
 10
437408.2784119319
 20
2553980.335698736
 10
437392.1209048583
 20
2553983.803905907
 10
437371.895915968
 20
2553984.7353765
 10
437340.6098681043
 20
2553988.448528794
 10
437304.6390767973
 20
2553997.036777307
 10
437302.8207197128
 20
2553997.307915831
 10
437300.7543523871
 20
2553997.875358063
 10
437299.0764388855
 20
2553998.51730819
 10
437297.0248532147
 20
2553999.302197178
 10
437296.3579093401
 20
2553999.527408425
 10
437294.4035289115
 20
2553999.575646598
 10
437292.1525383307
 20
2553999.63118123
 10
437253.1340381665
 20
2554006.764529
 10
437252.306126141
 20
2554006.542681924
 10
437220.3959870272
 20
2554010.533372929
 10
437216.308527972
 20
2554012.750635361
 10
437214.761095274
 20
2554013.884522517
 10
437188.6039288582
 20
2554023.151801971
 10
437154.7929924711
 20
2554030.219864157
 10
437116.1504411451
 20
2554037.580010767
 10
437115.9134131867
 20
2554037.607304637
 10
437113.3823658585
 20
2554037.560619256
 10
437072.8092589535
 20
2554047.185964442
 10
437070.4383104468
 20
2554048.568636933
 10
437070.3255851259
 20
2554048.598943238
 10
437035.5961469086
 20
2554057.677522765
 10
437005.8538161846
 20
2554064.790118903
 10
436973.2949896412
 20
2554064.092200287
 10
436971.2575199088
 20
2554064.121841956
 10
436971.0795796631
 20
2554064.124431913
 10
436970.8909176805
 20
2554063.959799688
 10
436970.8030190729
 20
2554063.797210061
 10
436968.171344254
 20
2554061.091330961
 10
436967.0269509732
 20
2554060.186036007
 10
436966.1783165263
 20
2554059.458558342
 10
436965.7902933532
 20
2554058.733366115
 10
436963.6001566847
 20
2554056.896155708
 10
436963.1830896121
 20
2554056.466355352
 10
436962.450938676
 20
2554055.542431283
 10
436960.842001391
 20
2554053.878496626
 10
436959.7564960053
 20
2554052.507419417
 10
436958.351171761
 20
2554050.732400455
 10
436955.6672949522
 20
2554048.388096994
 10
436953.0018177952
 20
2554046.799596867
 10
436950.9017613476
 20
2554045.668484942
 10
436948.4293542702
 20
2554044.993205037
 10
436945.859332018
 20
2554044.525694056
 10
436941.7972201602
 20
2554044.54441701
 10
436939.6754639922
 20
2554045.044230282
 10
436937.78076409
 20
2554045.233606082
 10
436937.5559972327
 20
2554045.286522363
 10
436936.0565317307
 20
2554045.29343846
 10
436935.261546112
 20
2554045.297121091
 10
436934.7841755074
 20
2554045.299317079
 10
436933.8296059343
 20
2554045.30371988
 10
436931.523417356
 20
2554045.314379103
 10
436890.7719622039
 20
2554053.699960847
 10
436862.8055897445
 20
2554072.846387886
 10
436861.5038333222
 20
2554074.257266509
 10
436861.4392556462
 20
2554074.327256444
 10
436836.1828326857
 20
2554094.918451657
 10
436808.4267055025
 20
2554115.836798839
 10
436807.1557889325
 20
2554117.004655096
 10
436779.19799729
 20
2554138.15132028
 10
436778.7956057576
 20
2554139.081509261
 10
436759.2541265518
 20
2554154.284355831
 10
436733.5976538611
 20
2554174.908249243
 10
436704.6748458519
 20
2554197.338288177
 10
436684.0392270516
 20
2554215.159729379
 10
436684.0439954731
 20
2554217.000324532
 10
436660.7784052284
 20
2554241.211177595
 10
436640.371157164
 20
2554262.315521574
 10
436616.1446615583
 20
2554287.377364311
 10
436596.3726020889
 20
2554309.225143275
 10
436564.1513543858
 20
2554340.399458854
 10
436543.5323866797
 20
2554360.904152628
 10
436514.3726536764
 20
2554388.062034102
 10
436496.3350919275
 20
2554405.257315329
 10
436465.0674741257
 20
2554433.533983576
 10
436448.0669299524
 20
2554448.840075634
 10
436446.8437080627
 20
2554449.832899219
 10
436446.3304883864
 20
2554450.249449202
 10
436430.3074394046
 20
2554463.392219819
 10
436405.6690205326
 20
2554483.298688672
 10
436380.724048337
 20
2554502.995019503
 10
436363.1115569595
 20
2554518.195699464
 10
436351.0105885999
 20
2554528.377692079
 10
436340.445235186
 20
2554540.972127477
 10
436326.6892721647
 20
2554558.419305687
 10
436309.6429644728
 20
2554582.415352819
 10
436296.2469431485
 20
2554601.791465296
 10
436272.1194817956
 20
2554639.414621619
 10
436253.0148051951
 20
2554677.972455933
 10
436244.7328404189
 20
2554693.861399051
 10
436244.3183062732
 20
2554694.579552453
 10
436234.45860514
 20
2554714.831837357
 10
436221.6110234935
 20
2554728.642304818
 10
436221.1303664475
 20
2554729.722360765
 10
436202.3816503707
 20
2554751.091149793
 10
436201.588445473
 20
2554751.783685673
 10
436143.3877554996
 20
2554822.15262571
 10
436130.1459494707
 20
2554842.227048846
 10
436112.7959736836
 20
2554866.678410084
 10
436103.8252632083
 20
2554880.503306735
 10
436096.3457213485
 20
2554891.308792387
 10
436096.0980098792
 20
2554891.675109511
 10
436080.4681156482
 20
2554909.032497787
 10
436054.9466238698
 20
2554936.570267213
 10
436030.0313557927
 20
2554964.008562126
 10
436005.2278530986
 20
2554993.486917712
 10
435983.5388957676
 20
2555020.958950006
 10
435952.3886625928
 20
2555060.607434837
 10
435931.6972830018
 20
2555084.312417987
 10
435905.8889522454
 20
2555113.292192929
 10
435886.1931309098
 20
2555136.278045874
 10
435866.6164231839
 20
2555158.511431898
 10
435844.486304929
 20
2555183.045673319
 10
435839.2884817669
 20
2555188.474440535
 10
435830.6952221464
 20
2555194.040865239
 10
435800.3574364956
 20
2555206.598263918
 10
435799.9934285305
 20
2555207.702801569
 10
435776.4186392117
 20
2555218.570025584
 10
435750.2647047826
 20
2555229.900963128
 10
435717.3931718786
 20
2555248.082821491
 10
435575.5865327041
 20
2555406.663845884
 10
435564.9098935906
 20
2555417.979411422
 10
435537.161138851
 20
2555443.456526416
 10
435505.7385482729
 20
2555470.45844618
 10
435468.7435573519
 20
2555676.375091809
 10
435462.9738792759
 20
2555691.200284684
 10
435462.3856401079
 20
2555724.414023586
 10
435462.9794777638
 20
2555728.397782622
 10
435471.79047652
 20
2555750.838989513
 10
435469.2990731343
 20
2555757.145761889
 10
435446.1747298421
 20
2555791.745881085
 10
435432.264927125
 20
2555808.689962698
 10
435410.7462045289
 20
2555826.532384161
 10
435374.4923985204
 20
2555845.611955497
 10
435336.0233872549
 20
2555863.640479854
 10
435308.3877789605
 20
2555877.369027177
 10
435292.7478917596
 20
2555882.511114595
 10
435292.5491905803
 20
2555882.59047247
 10
435274.3437557104
 20
2555884.601651954
 10
435273.5726713413
 20
2555884.60523139
 10
435269.1286300149
 20
2555884.625852407
 10
435267.4915065889
 20
2555884.633450725
 10
435266.85938055
 20
2555884.63637541
 10
435240.6360120983
 20
2555884.453392326
 10
435213.5462800347
 20
2555887.738794154
 10
435189.2903460018
 20
2555892.20093794
 10
435107.2352228406
 20
2555924.275632167
 10
435107.2352228406
 20
2555924.275632167
 10
435107.2352228406
 20
2555924.275632167
  0
LWPOLYLINE
  5
281
330
1F
100
AcDbEntity
  8
0
 48
1.05
100
AcDbPolyline
 90
      307
 70
   128
 43
0.0
 10
469373.13
 20
2541372.62
 10
469455.6107742879
 20
2541327.873121507
 10
469513.0783752799
 20
2541372.725299436
 10
469536.6034636177
 20
2541391.380233643
 10
469557.1736739345
 20
2541416.243513697
 10
469579.3872413157
 20
2541443.571692992
 10
469627.7681682428
 20
2541522.937586207
 10
469660.9643790299
 20
2541597.884817363
 10
469662.5361520267
 20
2541601.01451889
 10
469692.7617047694
 20
2541659.270762843
 10
469728.3867108128
 20
2541715.639074705
 10
469764.4862056821
 20
2541762.313341593
 10
469801.3746828084
 20
2541799.754532463
 10
469844.5684108127
 20
2541850.633427151
 10
469898.3852078685
 20
2541889.090794568
 10
469942.3711615094
 20
2541949.881812842
 10
469986.1686674501
 20
2541992.736139376
 10
470024.3361688445
 20
2542044.480331728
 10
470063.2449477207
 20
2542098.503554389
 10
470101.0704359028
 20
2542163.890699075
 10
470132.1870051358
 20
2542198.807641696
 10
470168.3720368629
 20
2542215.650595384
 10
470192.3157587363
 20
2542221.386234261
 10
470217.9543628813
 20
2542211.831518623
 10
470232.7467697723
 20
2542197.063762283
 10
470243.749110635
 20
2542242.730147114
 10
470245.3375547505
 20
2542329.59193473
 10
470248.8234615639
 20
2542407.933228549
 10
470250.0889990876
 20
2542443.360902863
 10
470251.8319118175
 20
2542492.152520992
 10
470248.7093656822
 20
2542562.564138385
 10
470248.9169510243
 20
2542649.999119294
 10
470249.9992053033
 20
2542702.856372566
 10
470263.3133993981
 20
2542779.784987986
 10
470263.404584815
 20
2542825.111308764
 10
470275.0087496801
 20
2542867.832627018
 10
470276.3799531726
 20
2542870.54102663
 10
470295.5554067838
 20
2542913.132342761
 10
470313.8614959661
 20
2542940.519107216
 10
470323.1703144044
 20
2542962.453076413
 10
470318.8909602043
 20
2542979.390238779
 10
470276.2725852283
 20
2542994.27063909
 10
470241.1500348868
 20
2542998.782484714
 10
470227.8859098934
 20
2542999.508778805
 10
470196.0658552014
 20
2543001.788849267
 10
470196.0691380125
 20
2543003.209881163
 10
470183.3095700204
 20
2543005.562748052
 10
470164.6860115093
 20
2543014.600523735
 10
470153.4133447053
 20
2543022.29418851
 10
470140.4746156764
 20
2543034.010196068
 10
470138.8938087889
 20
2543035.589532922
 10
470127.4525055502
 20
2543054.226427302
 10
470099.4980188553
 20
2543077.045092744
 10
470062.1351349968
 20
2543095.741901987
 10
470028.6721377517
 20
2543112.450615574
 10
469998.4538711265
 20
2543130.108826224
 10
469973.1569205197
 20
2543138.559697332
 10
469967.7587891839
 20
2543140.721424246
 10
469941.2263739858
 20
2543151.858078934
 10
469919.3444110592
 20
2543183.935966284
 10
469908.6733859346
 20
2543212.904641651
 10
469908.6831796734
 20
2543217.019230442
 10
469904.6169045272
 20
2543265.606851206
 10
469900.273322798
 20
2543303.823489016
 10
469892.4378370065
 20
2543351.059848592
 10
469891.2991499354
 20
2543356.780830253
 10
469889.5943464954
 20
2543406.969591599
 10
469893.4728137252
 20
2543456.650820542
 10
469897.3759264821
 20
2543501.711939549
 10
469907.8442386217
 20
2543551.851880535
 10
469913.974806916
 20
2543580.112925852
 10
469916.4304611906
 20
2543603.309735842
 10
469921.1054888471
 20
2543652.872171892
 10
469920.3473532542
 20
2543686.08168619
 10
469916.3215525202
 20
2543710.530215624
 10
469902.291279345
 20
2543743.107984685
 10
469891.476445112
 20
2543780.14829664
 10
469891.0422030393
 20
2543782.112139472
 10
469890.0061783144
 20
2543785.226409954
 10
469888.3084452424
 20
2543816.142874082
 10
469887.78510991
 20
2543820.113246959
 10
469887.7880243805
 20
2543821.347017375
 10
469884.3998962161
 20
2543841.412234331
 10
469817.2723476299
 20
2543857.298165464
 10
469829.8415600512
 20
2543914.726723876
 10
469836.959432619
 20
2543939.3033158
 10
469843.7085711804
 20
2543976.223577948
 10
469843.965829866
 20
2544002.993340596
 10
469843.2609619471
 20
2544022.789205429
 10
469840.8157265713
 20
2544036.429347473
 10
469829.6225835195
 20
2544068.576366914
 10
469811.775544721
 20
2544094.91912274
 10
469787.6972187107
 20
2544126.966232767
 10
469761.4418748449
 20
2544172.285504525
 10
469739.2530835712
 20
2544215.388160167
 10
469725.6265779549
 20
2544256.363196734
 10
469714.8099293643
 20
2544285.221023661
 10
469696.6326068642
 20
2544312.339774199
 10
469679.9788535542
 20
2544340.638759799
 10
469653.8767137837
 20
2544363.395888009
 10
469609.198485614
 20
2544400.550079024
 10
469573.3828544939
 20
2544432.066362955
 10
469567.2193295354
 20
2544437.787404714
 10
469549.1030595753
 20
2544454.603121433
 10
469521.3178271115
 20
2544483.717749432
 10
469491.7116052432
 20
2544527.129705142
 10
469474.2859379978
 20
2544548.267818047
 10
469428.6304170474
 20
2544586.343335984
 10
469388.4550445064
 20
2544624.353924513
 10
469357.4071942353
 20
2544645.497308263
 10
469313.5112470371
 20
2544672.515643905
 10
469280.1508799179
 20
2544695.577741414
 10
469261.254542692
 20
2544713.405037521
 10
469249.0609116436
 20
2544747.425493925
 10
469235.403167083
 20
2544793.571601393
 10
469220.6956856557
 20
2544864.974560884
 10
469206.611565615
 20
2544895.738573114
 10
469197.9390294438
 20
2544916.279328103
 10
469192.1214843286
 20
2544940.520252479
 10
469190.9833926144
 20
2544952.103695095
 10
469189.7902809848
 20
2544989.751622765
 10
469175.248311195
 20
2545007.666395706
 10
469127.4995092192
 20
2545063.027240859
 10
469081.1789497209
 20
2545119.24721549
 10
469008.1067724675
 20
2545211.56245746
 10
468990.4102581868
 20
2545204.799730516
 10
468983.7710601746
 20
2545222.172636723
 10
468956.4868030972
 20
2545254.940109468
 10
468944.9860978225
 20
2545289.44341586
 10
468936.3888578642
 20
2545309.643567529
 10
468925.0953445003
 20
2545337.597327982
 10
468907.7225420792
 20
2545380.598574947
 10
468888.0549196107
 20
2545451.455864284
 10
468876.2416230789
 20
2545524.381710631
 10
468865.7450232828
 20
2545577.498407105
 10
468856.4201132202
 20
2545594.422180009
 10
468855.6347360171
 20
2545596.531777821
 10
468843.1103465126
 20
2545616.197770495
 10
468823.396443616
 20
2545648.402092295
 10
468807.2625855875
 20
2545670.845728617
 10
468796.5302753354
 20
2545678.203516614
 10
468756.7778807273
 20
2545700.361946866
 10
468764.5093297744
 20
2545740.676743913
 10
468771.0964779675
 20
2545773.621394098
 10
468777.9221691211
 20
2545803.329485334
 10
468776.5911594179
 20
2545846.647642271
 10
468776.6006343291
 20
2545848.988464687
 10
468776.6165036549
 20
2545852.906503859
 10
468775.8628301065
 20
2545866.787104416
 10
468775.8781694781
 20
2545870.608467538
 10
468775.8880915892
 20
2545873.08161075
 10
468776.8425296956
 20
2545888.950062552
 10
468784.8223897121
 20
2545921.262799885
 10
468784.4618415663
 20
2545926.183544669
 10
468784.5292058599
 20
2545941.38936318
 10
468784.5453180974
 20
2545945.025935168
 10
468784.1767201011
 20
2545947.469411965
 10
468782.6077966849
 20
2545956.502530811
 10
468774.0368928389
 20
2546007.679145423
 10
468773.4506963922
 20
2546009.999051623
 10
468772.9720675762
 20
2546013.540137904
 10
468772.1118287965
 20
2546016.095330335
 10
468770.9449784164
 20
2546020.712903944
 10
468763.8933539687
 20
2546046.84573667
 10
468746.4945419552
 20
2546092.123271233
 10
468727.7720530921
 20
2546125.112181162
 10
468711.4694947221
 20
2546157.492321555
 10
468711.4730740931
 20
2546161.843519248
 10
468702.330058467
 20
2546185.937680871
 10
468701.1799851148
 20
2546206.662682339
 10
468698.0063331541
 20
2546225.652417019
 10
468692.7629251278
 20
2546252.432107944
 10
468678.328086838
 20
2546289.392045614
 10
468668.7746132172
 20
2546316.889180033
 10
468651.3589291672
 20
2546345.681966898
 10
468621.3831250163
 20
2546380.240264703
 10
468596.9800269836
 20
2546406.920051262
 10
468583.0607290879
 20
2546428.899239302
 10
468579.9517751909
 20
2546438.484489551
 10
468516.4792537258
 20
2546463.651403056
 10
468451.3574628591
 20
2546485.563281961
 10
468404.0527339028
 20
2546492.350734366
 10
468345.4325783842
 20
2546503.76181
 10
468312.6361462654
 20
2546518.515210411
 10
468271.2321033313
 20
2546526.633781867
 10
468218.9503833618
 20
2546527.841156849
 10
468178.3089131093
 20
2546525.586737681
 10
468134.6871436955
 20
2546532.733151992
 10
468037.6279150346
 20
2546550.671407151
 10
467900.8605151627
 20
2546574.238966958
 10
467734.4921992689
 20
2546591.399924227
 10
467621.6506702564
 20
2546598.458154279
 10
467579.8985552964
 20
2546616.142551281
 10
467525.0574212586
 20
2546670.913235796
 10
467503.4885455167
 20
2546732.171354566
 10
467477.7910780401
 20
2546797.645306327
 10
467429.0950045677
 20
2546899.19320408
 10
467393.8986694905
 20
2547006.514162739
 10
467363.3650209311
 20
2547077.350455896
 10
467334.5349946152
 20
2547165.385160333
 10
467315.4407703818
 20
2547224.322574435
 10
467302.3381666776
 20
2547266.549678345
 10
467289.6738370678
 20
2547323.667226269
 10
467285.6214633781
 20
2547346.647519087
 10
467285.243653909
 20
2547348.597564392
 10
467281.8055587982
 20
2547365.026688202
 10
467267.7386040007
 20
2547432.246812864
 10
467259.7577513722
 20
2547468.301434415
 10
467255.7621350491
 20
2547502.919538235
 10
467252.1655141408
 20
2547522.289450654
 10
467251.4305696778
 20
2547526.57067272
 10
467245.0742259807
 20
2547550.674552756
 10
467239.7909399673
 20
2547606.051785348
 10
467238.6372333121
 20
2547641.842655825
 10
467238.6498869864
 20
2547644.224860629
 10
467233.0803411271
 20
2547683.095713048
 10
467215.8203496389
 20
2547722.228328262
 10
467214.0812537999
 20
2547729.207257485
 10
467201.5464140847
 20
2547757.681013623
 10
467183.3260850973
 20
2547782.412877557
 10
467159.9208232868
 20
2547822.166169725
 10
467148.5467070563
 20
2547843.537730232
 10
467121.5707306739
 20
2547894.224918035
 10
467096.7348420582
 20
2547930.927805
 10
467072.6376193194
 20
2547970.536987728
 10
467061.4506311985
 20
2548025.393397894
 10
467061.4662040168
 20
2548030.15045884
 10
467061.4750501247
 20
2548033.980190163
 10
467056.6359155389
 20
2548053.458358509
 10
467041.6132640275
 20
2548060.819915945
 10
467038.5271827482
 20
2548062.680421919
 10
467022.2793047137
 20
2548074.396524665
 10
467018.9768787657
 20
2548075.507651639
 10
467006.7827987884
 20
2548092.622872118
 10
467003.8909943289
 20
2548101.34604913
 10
467003.4241331585
 20
2548117.094506952
 10
467003.4318821683
 20
2548119.934422945
 10
467007.1946939329
 20
2548171.672665115
 10
467010.4011445815
 20
2548213.544192902
 10
467010.4045768186
 20
2548215.029826328
 10
467009.3028220335
 20
2548238.396851234
 10
466995.363357612
 20
2548258.078272333
 10
466958.2469013322
 20
2548291.183121327
 10
466925.056868306
 20
2548329.767276352
 10
466920.5677288461
 20
2548335.129720048
 10
466901.9022738513
 20
2548356.952434804
 10
466870.5742296977
 20
2548372.379441992
 10
466834.8625812845
 20
2548397.514671022
 10
466802.2594823457
 20
2548421.510107094
 10
466781.0600709854
 20
2548429.037959129
 10
466754.3322971447
 20
2548447.194758383
 10
466737.7134591471
 20
2548471.090789614
 10
466725.4083149535
 20
2548514.036554019
 10
466715.5687678735
 20
2548527.597649309
 10
466699.1868117285
 20
2548557.507796711
 10
466679.7556293221
 20
2548613.711617245
 10
466670.7894748499
 20
2548633.722316394
 10
466669.8619839188
 20
2548637.58066212
 10
466668.3479259176
 20
2548661.362348437
 10
466691.7862455754
 20
2548694.543967238
 10
466716.5698875115
 20
2548731.256158843
 10
466730.2066462869
 20
2548758.013581197
 10
466740.5421902084
 20
2548793.275834734
 10
466757.1634612009
 20
2548835.767468823
 10
466760.7560879516
 20
2548865.522514427
 10
466762.1357300853
 20
2548871.763315063
 10
466766.9339147471
 20
2548902.702772019
 10
466770.6528086459
 20
2548926.682875593
 10
466781.9311860839
 20
2548977.994084834
 10
466798.2575513458
 20
2549028.260013637
 10
466759.9661954929
 20
2549046.314379667
 10
466730.9742106932
 20
2549061.760076949
 10
466711.1947716857
 20
2549072.297756452
 10
466658.7888094714
 20
2549094.667182093
 10
466605.7706463432
 20
2549123.610941411
 10
466554.2934312392
 20
2549149.085724801
 10
466491.7358819372
 20
2549181.544533776
 10
466439.8068007574
 20
2549204.40193752
 10
466405.5378471966
 20
2549219.504324845
 10
466362.6196006979
 20
2549240.631945871
 10
466321.9086463139
 20
2549261.145099432
 10
466318.9675131204
 20
2549262.860681114
 10
466285.7833110011
 20
2549278.113875486
 10
466240.6304897285
 20
2549300.167054886
 10
466236.5496249756
 20
2549302.236289161
 10
466198.0582986845
 20
2549319.449622412
 10
466152.4142066732
 20
2549341.142792211
 10
466107.2961917184
 20
2549363.232264537
 10
466103.7790316488
 20
2549365.02826107
 10
466065.5990976454
 20
2549383.226017756
 10
466035.6826651688
 20
2549398.065969747
 10
466033.2110081934
 20
2549398.576690683
 10
465996.3588146164
 20
2549416.558211831
 10
465973.5898380548
 20
2549427.384616822
 10
465956.8409292199
 20
2549435.728111542
 10
465936.9433807532
 20
2549446.558473232
 10
465510.7878915949
 20
2549679.035238429
 10
465391.0768370039
 20
2549762.01764202
 10
465117.1233877915
 20
2549902.373288239
 10
465138.6535242539
 20
2549934.345452545
 10
465200.1529401863
 20
2550054.103256556
 10
465425.567314323
 20
2550492.136454413
 10
465571.1112454166
 20
2550776.470312242
 10
465571.9548992872
 20
2550795.343449101
 10
465597.49896597
 20
2550820.069810678
 10
466014.2886742735
 20
2550987.272027407
 10
465933.4026839053
 20
2551197.510464808
  0
LWPOLYLINE
  5
282
330
1F
100
AcDbEntity
  8
0
 48
1.05
100
AcDbPolyline
 90
        2
 70
   128
 43
0.0
 10
468954.1523670004
 20
2545542.565628128
 10
468876.3006826017
 20
2545524.017124364
  0
LWPOLYLINE
  5
28B
330
1F
100
AcDbEntity
  8
0
 48
1.05
100
AcDbPolyline
 90
       92
 70
   128
 43
0.0
 10
461495.8276681814
 20
2556551.212054453
 10
461487.7939163703
 20
2556519.617957893
 10
461479.9174833207
 20
2556501.220079882
 10
461473.7370011833
 20
2556492.334027553
 10
461471.8686490524
 20
2556487.26737013
 10
461458.8236364759
 20
2556474.308486333
 10
461326.2367733631
 20
2556291.259282618
 10
461295.6507543173
 20
2556272.828209177
 10
461275.7006841619
 20
2556256.80357168
 10
461275.7006841619
 20
2556256.80357168
 10
461107.6397050978
 20
2556101.26327634
 10
461097.8955179644
 20
2556073.495676621
 10
461078.7918329318
 20
2556028.890531081
 10
461042.1063654005
 20
2555947.968323307
 10
461015.4322144903
 20
2555911.654021677
 10
460967.5114459103
 20
2555879.771757104
 10
460923.7049381559
 20
2555851.013375835
 10
460852.9877256116
 20
2555794.508858201
 10
460811.3953268538
 20
2555753.883615031
 10
460809.4015813605
 20
2555737.222253561
 10
460799.5779355234
 20
2555703.722020771
 10
460794.4159784493
 20
2555695.43116913
 10
460779.9043907177
 20
2555680.792334117
 10
460752.6802185271
 20
2555642.822729385
 10
460739.4861753145
 20
2555619.734118111
 10
460732.2517902502
 20
2555598.698585268
 10
460732.2174916146
 20
2555585.912067853
 10
460732.2027693325
 20
2555580.423528452
 10
460735.2098710212
 20
2555559.132986646
 10
460735.8542885779
 20
2555552.322314105
 10
460735.0635903634
 20
2555547.681409066
 10
460733.4781019097
 20
2555544.549367234
 10
460730.3506247362
 20
2555538.678981164
 10
460707.134528936
 20
2555487.442999927
 10
460681.744266155
 20
2555495.934083864
 10
460662.264945072
 20
2555500.704803515
 10
460610.3186096055
 20
2555524.510467227
 10
460557.7007578789
 20
2555548.363727558
 10
460499.9936885234
 20
2555561.167458688
 10
460473.397357116
 20
2555563.773714785
 10
460460.3867693714
 20
2555563.808620215
 10
460443.2401554875
 20
2555557.748368868
 10
460440.2006129951
 20
2555555.076360871
 10
460431.9997049044
 20
2555550.445760837
 10
460430.1195960655
 20
2555547.525339445
 10
460429.0670184735
 20
2555546.831657995
 10
460381.4676374294
 20
2555512.061142351
 10
460334.557304996
 20
2555466.803989914
 10
460322.77335464
 20
2555455.365419232
 10
460307.0512928893
 20
2555442.497687441
 10
460256.1847018779
 20
2555421.206652934
 10
460204.9143642985
 20
2555407.535051321
 10
460164.6115822298
 20
2555398.27474635
 10
460132.3165899635
 20
2555382.863649676
 10
460100.5012672612
 20
2555362.815100016
 10
460084.6178374677
 20
2555361.832036869
 10
460064.4974434143
 20
2555362.645884234
 10
460036.3573971956
 20
2555376.385599729
 10
460021.992233351
 20
2555377.088564469
 10
459969.1144817113
 20
2555368.450298633
 10
459934.9290447384
 20
2555349.066992324
 10
459926.3210793271
 20
2555334.887849825
 10
459916.1695838883
 20
2555295.809441265
 10
459908.2438982917
 20
2555258.700562711
 10
459900.5066260592
 20
2555233.940552702
 10
459891.5319780714
 20
2555218.171437682
 10
459872.2196744055
 20
2555185.904788083
 10
459864.3123752311
 20
2555165.107286536
 10
459866.0718296171
 20
2555149.886898395
 10
459867.3779364825
 20
2555140.173888653
 10
459864.1338989363
 20
2555131.036077009
 10
459863.6265976792
 20
2555130.033931252
 10
459861.1286515636
 20
2555126.329766535
 10
459847.9080436564
 20
2555080.406168915
 10
459847.9080436564
 20
2555080.406168915
 10
459774.8928181955
 20
2554880.313777907
 10
459670.2716441998
 20
2554630.917465368
 10
459664.5239685101
 20
2554617.216136393
 10
459663.7853648384
 20
2554609.38127916
 10
459654.0502149106
 20
2554596.25517124
 10
459650.9495147265
 20
2554591.147651221
 10
459613.0275674884
 20
2554557.367574524
 10
459607.8586844799
 20
2554551.558597527
 10
459582.0972972805
 20
2554542.430845272
 10
459579.4789257509
 20
2554522.877584604
 10
459588.2790711494
 20
2554491.604675489
 10
459588.2558511095
 20
2554489.854605481
 10
459587.7126781187
 20
2554448.916227816
 10
459592.4320803589
 20
2554432.324456606
 10
459599.8676108867
 20
2554427.013415106
 10
459603.6011260248
 20
2554419.200603669
 10
459744.9990333468
 20
2554429.000217909
  0
LWPOLYLINE
  5
28C
330
1F
100
AcDbEntity
  8
0
 48
1.05
100
AcDbPolyline
 90
       27
 70
   128
 43
0.0
 10
457551.9990333467
 20
2556956.000217908
 10
457734.0868541347
 20
2556792.821790466
 10
457803.6052261977
 20
2556732.776035445
 10
457805.467594345
 20
2556736.156795453
 10
457822.3321886638
 20
2556775.63453872
 10
457830.8155992139
 20
2556803.841052635
 10
457973.2358453507
 20
2556960.673996715
 10
458028.766164335
 20
2556991.856984431
 10
458048.0604117219
 20
2557001.315672932
 10
458136.0234544574
 20
2557041.908094176
 10
458380.8139111689
 20
2557154.871868806
 10
458406.6665976743
 20
2557173.598752872
 10
458461.7134206881
 20
2557187.15529909
 10
458516.5453409234
 20
2557189.943448224
 10
458564.3711153765
 20
2557195.921357449
 10
458607.4522404127
 20
2557224.769764975
 10
458643.928011014
 20
2557253.539495509
 10
458651.5726675641
 20
2557259.606138885
 10
458882.2200774429
 20
2557247.695691799
 10
458888.7117858039
 20
2557247.459714929
 10
459165.6345197296
 20
2557216.260461812
 10
459202.9351535223
 20
2557214.814317295
 10
459232.6487041838
 20
2557216.364066414
 10
459240.1871937664
 20
2557222.161838362
 10
459246.3575633469
 20
2557223.167395512
 10
459287.4878753915
 20
2557221.62720787
 10
459319.7286443436
 20
2557217.197806898
  0
LWPOLYLINE
  5
28D
330
1F
100
AcDbEntity
  8
0
 48
1.05
100
AcDbPolyline
 90
      138
 70
   128
 43
0.0
 10
455248.5148796129
 20
2559764.03440425
 10
455230.3287977911
 20
2559724.067109716
 10
455208.4611195298
 20
2559671.180909568
 10
455123.9626092889
 20
2559450.537864881
 10
455041.5743888838
 20
2559246.361501328
 10
454987.9263058246
 20
2559227.705373387
 10
454971.6598428132
 20
2559219.01879085
 10
454952.3198132299
 20
2559205.582721746
 10
454935.5226980909
 20
2559171.416017696
 10
454935.4544507659
 20
2559146.000215509
 10
454935.1085615747
 20
2559144.304140761
 10
454934.5801469574
 20
2559135.761134126
 10
454934.5729481093
 20
2559133.079757769
 10
454933.819206712
 20
2559125.545091326
 10
454929.1390516331
 20
2559124.472498075
 10
454884.3512519272
 20
2559121.334948359
 10
454841.7470670843
 20
2559109.824907987
 10
454808.5225000789
 20
2559082.943265835
 10
454782.5520833
 20
2559068.770480485
 10
454700.492848282
 20
2559052.087989241
 10
454692.9484217879
 20
2559051.905540868
 10
454648.7550235148
 20
2559082.968323064
 10
454614.7345431477
 20
2559095.298565579
 10
454576.6442721496
 20
2559095.556328729
 10
454560.2891467754
 20
2559088.384129939
 10
454541.0517127378
 20
2559077.752767952
 10
454496.2824986643
 20
2559074.617039344
 10
454485.4855232023
 20
2559062.968177449
 10
454484.2196065419
 20
2559053.112045358
 10
454480.892088848
 20
2559034.485519921
 10
454468.6325654931
 20
2559006.145144238
 10
454446.7242392608
 20
2558982.180795569
 10
454414.8984691386
 20
2558942.658061052
 10
454371.874709229
 20
2558880.226122643
 10
454353.6766220564
 20
2558853.575433112
 10
454321.7392171768
 20
2558805.02852735
 10
454281.6282771876
 20
2558756.494586222
 10
454254.4383123236
 20
2558717.46443513
 10
454237.1083135713
 20
2558697.030484776
 10
454193.3245414017
 20
2558665.655386703
 10
454157.3597500254
 20
2558631.556465385
 10
454123.7569701588
 20
2558597.606492932
 10
454095.7880411532
 20
2558571.605212046
 10
454082.8050227104
 20
2558559.835264675
 10
454065.1477933728
 20
2558543.827861729
 10
454045.6382506613
 20
2558513.77270114
 10
454040.6461948577
 20
2558498.872317845
 10
454036.9383584057
 20
2558487.80511571
 10
454024.037157244
 20
2558455.344871529
 10
454004.5276150748
 20
2558405.588746752
 10
454003.8090795071
 20
2558377.976539892
 10
454014.7068791418
 20
2558334.717706915
 10
454025.6367243848
 20
2558307.588382373
 10
454035.8332398821
 20
2558275.297475626
 10
454032.7647783989
 20
2558262.563284082
 10
454032.7542839192
 20
2558259.151070377
 10
454032.551207728
 20
2558255.345921834
 10
454032.4235978631
 20
2558254.721429604
 10
454028.6172812279
 20
2558246.69994424
 10
454010.6362865397
 20
2558233.289102043
 10
453985.7129924789
 20
2558254.076589109
 10
453974.0423418
 20
2558267.577917418
 10
453957.4172391301
 20
2558276.661038046
 10
453919.4367397489
 20
2558298.361912065
 10
453891.493787369
 20
2558313.452265357
 10
453869.7221942284
 20
2558331.349360042
 10
453859.7456224169
 20
2558338.837243227
 10
453842.6010778364
 20
2558346.169756017
 10
453811.8257306146
 20
2558366.838481533
 10
453789.5915920704
 20
2558377.889049396
 10
453765.5402511465
 20
2558387.231510428
 10
453741.1441709656
 20
2558393.371146164
 10
453710.0957810443
 20
2558409.286741234
 10
453682.5154157281
 20
2558424.653389808
 10
453656.539006522
 20
2558435.572470119
 10
453604.6083463099
 20
2558467.203125358
 10
453564.7408845863
 20
2558488.103956669
 10
453542.9949371748
 20
2558493.260658242
 10
453535.1466438483
 20
2558495.784490693
 10
453497.4834115168
 20
2558515.485041457
 10
453466.8981101094
 20
2558529.944801261
 10
453437.6000970889
 20
2558538.752545836
 10
453408.7286340215
 20
2558550.324835151
 10
453371.8055767708
 20
2558562.859295832
 10
453344.0269239576
 20
2558572.893411007
 10
453307.3123995005
 20
2558579.595404714
 10
453264.9406631016
 20
2558582.141891351
 10
453219.2842320956
 20
2558582.623204173
 10
453183.3428673004
 20
2558582.733777116
 10
453151.1959641985
 20
2558591.367331137
 10
453118.5128742007
 20
2558607.578878538
 10
453078.3278778137
 20
2558634.907306823
 10
453056.5734894264
 20
2558648.526027473
 10
453052.1723554971
 20
2558651.281239951
 10
453020.5107614172
 20
2558666.57055464
 10
452976.1465212581
 20
2558693.670499454
 10
452945.5478527665
 20
2558707.714957726
 10
452901.8708647277
 20
2558732.73791192
 10
452855.6384727727
 20
2558754.391473644
 10
452809.4396476052
 20
2558777.511845453
 10
452775.6981982956
 20
2558792.536768715
 10
452749.9808679357
 20
2558808.076172178
 10
452720.2816745142
 20
2558830.551303563
 10
452694.0314281161
 20
2558855.782358635
 10
452679.170218109
 20
2558865.045507138
 10
452653.3486063613
 20
2558877.286390227
 10
452617.5001761368
 20
2558892.506877733
 10
452617.0431184429
 20
2558856.907570257
 10
452603.5456880888
 20
2558817.651079254
 10
452572.9110425118
 20
2558790.399231866
 10
452538.4025252971
 20
2558766.039342097
 10
452501.7445940043
 20
2558725.488587614
 10
452481.976532099
 20
2558706.23789261
 10
452448.5068283797
 20
2558683.437270874
 10
452403.1968824835
 20
2558663.964589908
 10
452377.842413454
 20
2558652.881716337
 10
452356.3864694472
 20
2558632.50616894
 10
452326.5270206039
 20
2558599.311836436
 10
452276.8089060821
 20
2558550.266441326
 10
452258.6739673513
 20
2558533.145694234
 10
452211.0178581931
 20
2558477.150982032
 10
452193.6945372524
 20
2558449.515555605
 10
452168.0155229732
 20
2558402.470418744
 10
452162.7442237654
 20
2558385.718368161
 10
452163.106985035
 20
2558357.568316168
 10
452150.0436434497
 20
2558302.756805655
 10
452138.778328579
 20
2558276.379605638
 10
452115.0260527564
 20
2558218.669597246
 10
452110.8505380623
 20
2558207.820590423
 10
451873.4212723859
 20
2557804.243210319
 10
451871.3136347453
 20
2557799.065781122
 10
451819.93326174
 20
2557776.201436543
 10
451768.3727810132
 20
2557765.010396659
 10
451744.0370496863
 20
2557763.289395262
 10
451726.8843821134
 20
2557760.333949513
 10
451682.7735952289
 20
2557739.779791449
 10
451673.631330224
 20
2557735.904958742
 10
451723.9990333467
 20
2557675.000217908
  0
LWPOLYLINE
  5
28E
330
1F
100
AcDbEntity
  8
0
 48
1.05
100
AcDbPolyline
 90
      207
 70
   128
 43
0.0
 10
452369.1353333282
 20
2561950.607501652
 10
452451.0472379597
 20
2561840.573100306
 10
452544.2409593323
 20
2561747.240267848
 10
452739.127605264
 20
2561549.587008623
 10
452807.3174079484
 20
2561478.964015839
 10
452872.3880721337
 20
2561417.710501485
 10
452960.5316774679
 20
2561338.817010431
 10
452988.5237875116
 20
2561310.288262317
 10
453023.9774866426
 20
2561275.651280852
 10
453076.6992527481
 20
2561234.897715749
 10
453121.1183283488
 20
2561200.277434854
 10
453186.3992678883
 20
2561155.849744427
 10
453270.1971825671
 20
2561096.591948146
 10
453334.248329883
 20
2561051.245726389
 10
453406.0669213471
 20
2561003.928837414
 10
453462.7711752233
 20
2560964.40276418
 10
453503.1759031511
 20
2560926.855708452
 10
453557.6308479345
 20
2560877.814485658
 10
453576.0267554453
 20
2560866.466448577
 10
453590.8989577769
 20
2560858.642231694
 10
453683.2544421776
 20
2560819.516972133
 10
453796.8795972648
 20
2560773.682258713
 10
453894.9252601925
 20
2560727.221273932
 10
454041.9587086917
 20
2560665.036702819
 10
454140.424922328
 20
2560626.683844605
 10
454207.8595912539
 20
2560596.7188475
 10
454321.6249299107
 20
2560543.769691407
 10
454385.8990965417
 20
2560518.14266727
 10
454435.9828627477
 20
2560485.810364418
 10
454483.1418899349
 20
2560454.112683211
 10
454618.0112277869
 20
2560353.182790497
 10
454712.0361710611
 20
2560278.472792143
 10
454787.0981005657
 20
2560212.877129678
 10
454832.0524225229
 20
2560160.044877572
 10
454899.20672431
 20
2560078.253837684
 10
454953.7190169171
 20
2560010.311745184
 10
454989.2109479307
 20
2559986.262924879
 10
455074.1813070092
 20
2559910.793050605
 10
455181.6447570174
 20
2559788.286021897
 10
455248.5148796129
 20
2559764.03440425
 10
455268.1380194194
 20
2559755.694860214
 10
455337.274007121
 20
2559724.464794958
 10
455448.2036997675
 20
2559698.346048128
 10
455554.0676524553
 20
2559703.837931595
 10
455605.3925458792
 20
2559702.282123793
 10
455624.1228490039
 20
2559701.649686199
 10
455659.6923970593
 20
2559675.521202773
 10
455709.490993347
 20
2559638.940736214
 10
455783.1519039178
 20
2559583.422231993
 10
455885.1280957557
 20
2559523.790648042
 10
456068.3434381081
 20
2559405.452015862
 10
456184.561740463
 20
2559350.537528302
 10
456283.4916290433
 20
2559306.385143083
 10
456307.6741050272
 20
2559297.002612396
 10
456406.5179342383
 20
2559283.340579717
 10
456430.400865805
 20
2559272.787130679
 10
456555.0551462163
 20
2559243.430067501
 10
456726.4232211459
 20
2559234.286517173
 10
456802.3782969735
 20
2559233.34699466
 10
456824.2996633721
 20
2559223.215349246
 10
456848.0970364798
 20
2559188.8396533
 10
456899.4052588116
 20
2559118.731599846
 10
456929.5616591481
 20
2559103.637669013
 10
456958.753729767
 20
2559088.935814514
 10
456981.8232932212
 20
2559078.130871302
 10
456989.0971421662
 20
2559074.724076318
 10
457058.5315293054
 20
2559032.62572114
 10
457143.4917879974
 20
2558978.820076955
 10
457221.2125651929
 20
2558927.653175867
 10
457245.8302178355
 20
2558906.625939104
 10
457319.1277967537
 20
2558833.413768536
 10
457471.782550257
 20
2558681.082743834
 10
457582.3814282093
 20
2558566.960575991
 10
457698.4623763339
 20
2558450.517301528
 10
457740.7293863504
 20
2558403.046622938
 10
457791.9456842223
 20
2558352.813679229
 10
457840.6586084899
 20
2558317.22815472
 10
457898.103479297
 20
2558302.17085111
 10
457974.8760511029
 20
2558285.762596262
 10
457988.44286074
 20
2558278.616160798
 10
458007.1229733011
 20
2558253.941065096
 10
458031.2582658731
 20
2558222.79275975
 10
458058.0413074674
 20
2558175.185292858
 10
458096.7163033347
 20
2558106.440245797
 10
458146.372538401
 20
2558034.467634389
 10
458199.5762632979
 20
2557990.94618126
 10
458271.1441613779
 20
2557943.953139284
 10
458288.0915663525
 20
2557932.82519789
 10
458401.0098531858
 20
2557857.306332611
 10
458522.8925252046
 20
2557771.483990849
 10
458591.9347433647
 20
2557721.413283561
 10
458635.4834349263
 20
2557687.868229881
 10
458692.0714128353
 20
2557644.279585193
 10
458862.420407247
 20
2557524.955461019
 10
459018.911158728
 20
2557413.080221701
 10
459064.0799402261
 20
2557381.210396714
 10
459199.3380180475
 20
2557294.562111213
 10
459306.4571087211
 20
2557225.740403712
 10
459319.1531689182
 20
2557217.583458617
 10
459402.6339445696
 20
2557161.639272062
 10
459470.5201125164
 20
2557119.063545632
 10
459509.5516208071
 20
2557092.204729874
 10
459558.8790028611
 20
2557061.169012698
 10
459617.7726083867
 20
2557034.3463741
 10
459657.9797753295
 20
2557023.019457697
 10
459705.5920240136
 20
2557009.606587483
 10
459774.8130073143
 20
2556993.592941116
 10
459807.400488181
 20
2556991.773253717
 10
459850.804972985
 20
2556985.721660869
 10
459911.2895778535
 20
2556982.133981716
 10
459982.5379906453
 20
2556977.674338064
 10
460024.9127409699
 20
2556977.641164813
 10
460057.0627580675
 20
2556971.319630831
 10
460194.4969635729
 20
2556961.243533679
 10
460379.052110263
 20
2556950.61983698
 10
460494.5409133132
 20
2556939.953552464
 10
460585.4668398825
 20
2556937.497037079
 10
460598.590519115
 20
2556937.142524875
 10
460711.3485587995
 20
2556925.346782291
 10
460735.4873565972
 20
2556919.39076831
 10
460827.3532606615
 20
2556869.743106569
 10
460936.1900206142
 20
2556803.602673865
 10
461151.6410182288
 20
2556684.504212874
 10
461286.0772512112
 20
2556625.785734819
 10
461347.1430370553
 20
2556603.134508812
 10
461397.6103941452
 20
2556584.414814943
 10
461498.3559301339
 20
2556550.357364921
 10
461527.1592263371
 20
2556540.620290108
 10
461578.3358749697
 20
2556521.929967359
 10
461597.5075488264
 20
2556515.19185733
 10
461691.9555158413
 20
2556481.997453636
 10
461716.8168930853
 20
2556481.930753718
 10
461741.8995022524
 20
2556465.820609539
 10
461779.5326454795
 20
2556445.360435522
 10
461785.9356879967
 20
2556439.66637623
 10
461823.1013815268
 20
2556406.616037716
 10
461849.4632482398
 20
2556382.140642881
 10
461882.4538961944
 20
2556351.511007892
 10
461931.7342140734
 20
2556307.991836153
 10
461977.821554339
 20
2556267.248221353
 10
462031.9268709383
 20
2556216.535060825
 10
462085.0974769172
 20
2556169.982366025
 10
462106.2679023118
 20
2556155.245261299
 10
462191.051875662
 20
2556096.22642414
 10
462277.0167461663
 20
2556039.042735014
 10
462351.3126271258
 20
2555992.659158541
 10
462436.3605932379
 20
2555936.260666125
 10
462467.706766939
 20
2555916.130132064
 10
462517.1348802395
 20
2555884.387364094
 10
462525.9321208798
 20
2555875.090340193
 10
462528.0948841777
 20
2555872.804710556
 10
462617.0314216174
 20
2555722.277011903
 10
462677.988357407
 20
2555624.772097802
 10
462731.1094610078
 20
2555531.931251201
 10
462769.1924997343
 20
2555447.813537369
 10
462792.5237475873
 20
2555355.172257855
 10
462804.3066385363
 20
2555277.921783329
 10
462805.4503013181
 20
2555270.423790012
 10
462823.0233208514
 20
2555137.39590139
 10
462831.4609942087
 20
2555028.431594302
 10
462843.2587527863
 20
2554953.898645069
 10
462874.2903803985
 20
2554883.26113587
 10
462937.3562841768
 20
2554779.355788062
 10
462984.0349573746
 20
2554704.773127945
 10
463026.4358809361
 20
2554637.099423332
 10
463076.9180045957
 20
2554521.788767202
 10
463116.2694057555
 20
2554418.768381723
 10
463145.5035426819
 20
2554347.054419454
 10
463179.2125592229
 20
2554251.269891761
 10
463220.6004129169
 20
2554142.153930473
 10
463259.2399499173
 20
2554069.811860142
 10
463274.7798239903
 20
2554042.602720276
 10
463309.4042161692
 20
2553988.282722579
 10
463358.256773611
 20
2553924.175520822
 10
463408.8361154117
 20
2553846.725266013
 10
463447.3889234193
 20
2553787.069065382
 10
463481.143876309
 20
2553740.361195421
 10
463536.7156069132
 20
2553656.388304048
 10
463587.9931929435
 20
2553584.381523017
 10
463612.8645195443
 20
2553549.455850669
 10
463645.4207943507
 20
2553504.030510165
 10
463670.8326388276
 20
2553468.573698995
 10
463756.2260285398
 20
2553355.314473315
 10
463826.3462823583
 20
2553257.769280506
 10
463895.4988097006
 20
2553159.622948135
 10
463905.4524100012
 20
2553145.538887478
 10
463974.7825819992
 20
2553047.439608598
 10
464045.8621333986
 20
2552949.591964611
 10
464080.2416984491
 20
2552902.355380613
 10
464125.5291683806
 20
2552840.132231223
 10
464208.4138042013
 20
2552729.64207179
 10
464275.4538278068
 20
2552635.172184952
 10
464333.9035631231
 20
2552552.390259234
 10
464398.8549274066
 20
2552465.3736488
 10
464457.1479866979
 20
2552380.208712805
 10
464478.5624510816
 20
2552355.742017722
 10
464537.9476736078
 20
2552269.874929304
 10
464602.5342765314
 20
2552182.002161006
 10
464671.1577750119
 20
2552087.060048902
 10
464738.3261862326
 20
2551993.995458771
 10
464815.8234462945
 20
2551886.32878634
 10
464890.0690275172
 20
2551785.541744737
 10
464959.4896621766
 20
2551688.617576803
 10
465025.7862035778
 20
2551601.162491281
 10
465036.5896070756
 20
2551587.871855614
 10
465386.8851573495
 20
2551070.825014965
 10
465625.8506239139
 20
2551200.653850114
  0
LWPOLYLINE
  5
296
330
1F
100
AcDbEntity
  8
0
 48
1.05
100
AcDbPolyline
 90
       74
 70
   128
 43
0.0
 10
454059.9902716119
 20
2552273.852206344
 10
454104.327165855
 20
2552301.313725969
 10
454118.0005499954
 20
2552311.235423084
 10
454273.5494416149
 20
2552473.709269213
 10
454280.1218318955
 20
2552483.847097645
 10
454281.510139644
 20
2552485.21498844
 10
454283.0816266422
 20
2552486.763351148
 10
454293.1223419219
 20
2552495.748636024
 10
454294.8963078436
 20
2552497.494155375
 10
454296.7232207749
 20
2552498.842992292
 10
454297.9958569269
 20
2552500.09515893
 10
454312.6820578282
 20
2552511.474696725
 10
454314.8280011418
 20
2552512.3203394
 10
454317.775248331
 20
2552514.256672069
 10
454328.3430028939
 20
2552520.577668688
 10
454330.0522284482
 20
2552527.211969923
 10
454383.3820574936
 20
2552744.675625035
 10
454383.3820574936
 20
2552744.675625035
 10
454369.304953949
 20
2552787.810309744
 10
454369.304953949
 20
2552787.810309744
 10
454369.3010323763
 20
2552787.810309744
 10
454364.6360618923
 20
2552805.142092213
 10
454352.1881262914
 20
2552825.461726302
 10
454350.692333759
 20
2552826.969493545
 10
454337.7041520012
 20
2552847.523917764
 10
454322.3917930194
 20
2552880.616393906
 10
454321.4846831587
 20
2552881.830497919
 10
454320.3265279029
 20
2552882.991048226
 10
454318.1576547257
 20
2552885.407478207
 10
454316.7870765798
 20
2552886.919124623
 10
454309.3229572577
 20
2552892.420911226
 10
454306.752241403
 20
2552894.349909879
 10
454306.3512636432
 20
2552894.952684582
 10
454303.8303258182
 20
2552896.754120903
 10
454294.6257487598
 20
2552911.405736284
 10
454294.2197544998
 20
2552912.086698056
 10
454293.5342747084
 20
2552913.004126975
 10
454286.4367853065
 20
2552925.135563743
 10
454286.0621563561
 20
2552925.890163864
 10
454273.968008311
 20
2552949.666692011
 10
454273.505410485
 20
2552950.598031843
 10
454273.4985478593
 20
2552950.611848622
 10
454272.3774893222
 20
2552951.737314971
 10
454265.625354863
 20
2552963.921731246
 10
454265.4533706936
 20
2552964.152578701
 10
454264.9844517371
 20
2552964.781990983
 10
454263.4978022896
 20
2552966.576684308
 10
454262.3697076884
 20
2552968.472831693
 10
454260.0375936161
 20
2552972.392732963
 10
454259.2212587815
 20
2552976.338530117
 10
454427.2682504128
 20
2553415.940997434
 10
454428.0586031706
 20
2553420.858352148
 10
454428.0724248314
 20
2553420.912444334
 10
454428.0741941432
 20
2553421.391628877
 10
454428.322517019
 20
2553422.839210133
 10
454428.3310636449
 20
2553425.161204658
 10
454427.1203655334
 20
2553432.360174472
 10
454426.5610398624
 20
2553433.762521074
 10
454425.5504347439
 20
2553436.296322604
 10
454425.2696359949
 20
2553437.047712362
 10
454423.7462271104
 20
2553439.331690747
 10
454420.6157896568
 20
2553445.357274942
 10
454420.2000966897
 20
2553445.980451243
 10
454419.4762446107
 20
2553446.944529379
 10
454417.629232624
 20
2553449.713538152
 10
454416.9618856485
 20
2553451.387200476
 10
454410.7643754064
 20
2553462.611311912
 10
454410.7686764142
 20
2553464.009624506
 10
454394.9784977185
 20
2553506.101601936
 10
454394.9813752954
 20
2553507.043083271
 10
454381.0319163767
 20
2553548.640450986
 10
454380.749826706
 20
2553549.34896947
 10
454374.0963409049
 20
2553564.478187936
 10
454434.0190333469
 20
2553595.350217908
  0
LWPOLYLINE
  5
297
330
1F
100
AcDbEntity
  8
0
 48
1.05
100
AcDbPolyline
 90
      809
 70
   128
 43
0.0
 10
465713.6718091741
 20
2551102.403438964
 10
465713.6718091741
 20
2551102.403438964
 10
465713.6718091741
 20
2551102.403438964
 10
465625.4343779479
 20
2551015.644352284
 10
465625.4343779479
 20
2551015.644352284
 10
465625.4343779479
 20
2551015.644352284
 10
465625.4343779479
 20
2551015.644352284
 10
465625.4343779479
 20
2551015.644352284
 10
465625.4343779479
 20
2551015.644352284
 10
465625.4343779479
 20
2551015.644352284
 10
465625.4343779479
 20
2551015.644352284
 10
465625.4343779479
 20
2551015.644352284
 10
465625.4343779479
 20
2551015.644352284
 10
465625.4343779479
 20
2551015.644352284
 10
465625.4343779479
 20
2551015.644352284
 10
465625.4343779479
 20
2551015.644352284
 10
465580.2649769522
 20
2550973.429637663
 10
464987.411034219
 20
2550787.706718244
 10
464981.6294543538
 20
2550784.942666482
 10
464978.6214702353
 20
2550782.910813862
 10
464974.0639185421
 20
2550777.675589994
 10
464971.44658171
 20
2550771.763081919
 10
464967.5661519822
 20
2550759.456034668
 10
464965.977519678
 20
2550745.007304925
 10
464965.7301097287
 20
2550703.387885339
 10
464963.0867297445
 20
2550535.372588798
 10
464962.1882409826
 20
2550409.64179273
 10
464963.7768732868
 20
2550351.023149721
 10
464964.3888873717
 20
2550294.338732781
 10
464962.9955787118
 20
2550269.889383084
 10
464961.6543563548
 20
2550257.033186476
 10
464958.5812643561
 20
2550241.303108233
 10
464955.7295391523
 20
2550228.373691711
 10
464928.6707036625
 20
2550238.148550262
 10
464920.271786969
 20
2550240.339046029
 10
464911.2217914611
 20
2550241.711919421
 10
464902.2629469875
 20
2550242.352593671
 10
464888.7335292418
 20
2550240.796670493
 10
464838.730676364
 20
2550228.922841069
 10
464812.3619844167
 20
2550224.798119232
 10
464788.9882550109
 20
2550223.766938773
 10
464747.7879876922
 20
2550225.487606757
 10
464683.357228307
 20
2550230.960795347
 10
464656.1030691731
 20
2550235.451616754
 10
464580.5678361432
 20
2550254.15138436
 10
464499.2005116733
 20
2550282.183068922
 10
464430.2973214062
 20
2550306.583806047
 10
464393.1051037646
 20
2550321.626264986
 10
464357.6371063701
 20
2550336.372631633
 10
464335.7305758003
 20
2550341.799087558
 10
464321.5005589286
 20
2550344.792999047
 10
464308.2069255367
 20
2550344.418846592
 10
464292.2916546385
 20
2550342.921821663
 10
464275.0658602833
 20
2550339.927910174
 10
464244.5464325359
 20
2550327.390758798
 10
464138.6863755049
 20
2550280.600254599
 10
464063.4833541372
 20
2550243.580470551
 10
463999.2809930553
 20
2550214.002224603
 10
463959.2353177354
 20
2550193.143778728
 10
463937.5157095066
 20
2550181.951445291
 10
463920.716913105
 20
2550176.016064541
 10
463906.1774260706
 20
2550173.279521235
 10
463843.7878868685
 20
2550172.202172488
 10
463700.7542029954
 20
2550177.787062052
 10
463576.1354702963
 20
2550184.288237694
 10
463377.0679021036
 20
2550193.726869869
 10
463013.3853318876
 20
2550198.632939511
 10
462732.4238250571
 20
2550205.99653204
 10
462471.5912342241
 20
2550225.60141049
 10
462348.5909271258
 20
2550207.646184332
 10
462015.2080560774
 20
2550164.023784665
 10
461973.6310654622
 20
2550139.977167684
 10
461843.5147287907
 20
2550133.593977929
 10
461518.5317864977
 20
2550056.724366802
 10
461399.0314199932
 20
2550072.095815912
 10
460636.3438718881
 20
2550182.868354625
 10
460549.8764362613
 20
2550164.976312285
 10
460454.1154579095
 20
2550144.353565954
 10
460385.0122002316
 20
2550119.900946801
 10
460338.3281049628
 20
2550096.735822555
 10
460188.3913745267
 20
2550014.423782554
 10
460138.4567283758
 20
2549984.544572458
 10
460118.9922145352
 20
2549980.720474924
 10
460113.69523117
 20
2549980.206136198
 10
460093.315413714
 20
2549979.639186796
 10
460088.2847793396
 20
2549979.65080731
 10
460083.1673215178
 20
2549980.571645028
 10
460077.2227822306
 20
2549985.396904132
 10
460058.4741948885
 20
2549994.930426839
 10
460004.3081235361
 20
2550035.391773601
 10
459993.8601245756
 20
2550045.621894587
 10
459973.6716889847
 20
2550065.389392802
 10
459945.0757885645
 20
2550098.705788014
 10
459931.0775766613
 20
2550117.66476107
 10
459920.4410601802
 20
2550130.690289762
 10
459899.4433968612
 20
2550148.738394219
 10
459877.1659597264
 20
2550171.92901929
 10
459862.4251360389
 20
2550179.420565187
 10
459847.5345818815
 20
2550189.93256154
 10
459824.9719063665
 20
2550218.555327731
 10
459817.7940812131
 20
2550227.29468591
 10
459802.816827264
 20
2550245.875486633
 10
459786.2365877817
 20
2550261.235411929
 10
459775.2852100831
 20
2550269.323008278
 10
459770.5578579687
 20
2550272.668915745
 10
459758.2776594674
 20
2550284.21260895
 10
459743.7752949377
 20
2550298.699426649
 10
459735.2873286147
 20
2550306.251161576
 10
459721.1245835409
 20
2550318.851770584
 10
459709.0524192095
 20
2550336.804436069
 10
459672.5955252984
 20
2550369.172879315
 10
459644.9702961553
 20
2550385.907554943
 10
459612.3914913461
 20
2550404.127326969
 10
459560.1602360168
 20
2550424.988313052
 10
459526.1652508752
 20
2550437.853558468
 10
459522.7676128767
 20
2550438.919781875
 10
459514.9440037579
 20
2550441.374933123
 10
459492.6689829978
 20
2550445.858201852
 10
459473.600060935
 20
2550459.308111939
 10
459449.5464697572
 20
2550471.989002226
 10
459435.7338562709
 20
2550472.805838648
 10
459416.6342729386
 20
2550468.76155035
 10
459382.0121073153
 20
2550460.41742929
 10
459346.347103715
 20
2550446.106467092
 10
459322.3641770624
 20
2550432.137607583
 10
459300.6120546113
 20
2550422.817444435
 10
459288.6341820814
 20
2550415.542269798
 10
459205.7285432854
 20
2550438.048449056
 10
459153.0802676953
 20
2550450.173315939
 10
459120.2649344973
 20
2550452.992622199
 10
459090.8742216242
 20
2550449.127705106
 10
459057.2523780925
 20
2550444.354074574
 10
459007.8183159864
 20
2550435.289668086
 10
458955.4439231853
 20
2550423.110540238
 10
458902.5320053518
 20
2550412.609111704
 10
458879.6130377764
 20
2550408.264886237
 10
458853.2183147443
 20
2550433.65486729
 10
458815.2244659518
 20
2550469.647893791
 10
458795.2985857651
 20
2550494.375810407
 10
458776.4067976534
 20
2550515.17339862
 10
458760.6213194078
 20
2550531.317360801
 10
458723.0707090253
 20
2550573.607958345
 10
458708.4187875782
 20
2550591.454173817
 10
458702.3298069425
 20
2550614.198370158
 10
458682.4605299309
 20
2550677.697713403
 10
458669.4822151783
 20
2550714.402079024
 10
458660.1467864158
 20
2550736.437492094
 10
458639.5583177514
 20
2550777.61725379
 10
458621.993971245
 20
2550810.188666321
 10
458612.8969631232
 20
2550832.770734589
 10
458585.8370495953
 20
2550902.163156765
 10
458561.5034975671
 20
2550962.771444364
 10
458523.7833792651
 20
2550953.770166439
 10
458520.7392470399
 20
2550954.103967195
 10
458517.6926726012
 20
2550956.201564016
 10
458500.9438771399
 20
2550968.709376049
 10
458487.7186944198
 20
2550979.439464307
 10
458453.1273722673
 20
2551006.364828909
 10
458431.7171547207
 20
2551022.392258566
 10
458404.9271422421
 20
2551030.958254712
 10
458384.2843158593
 20
2551037.782488809
 10
458330.1386167983
 20
2551059.845424283
 10
458311.1303175491
 20
2551061.099008681
 10
458293.3728440532
 20
2551057.40361063
 10
458262.4159206768
 20
2551043.491660799
 10
458222.0839329253
 20
2551022.914335742
 10
458184.2539419542
 20
2551006.096711984
 10
458159.8205631567
 20
2550990.87411818
 10
458114.8311987507
 20
2550965.662189423
 10
458090.6240792674
 20
2550943.714140865
 10
458084.1455447862
 20
2550928.364555677
 10
458063.2472103764
 20
2550871.088687299
 10
458058.9572711497
 20
2550855.247653948
 10
458053.8807760114
 20
2550841.808930759
 10
458046.2688425557
 20
2550839.230183616
 10
458024.0572964342
 20
2550842.408403873
 10
457979.2446864504
 20
2550848.615146275
 10
457945.520418055
 20
2550849.023033625
 10
457908.313198699
 20
2550849.789088151
 10
457891.5609514536
 20
2550854.525735555
 10
457873.4879852496
 20
2550862.090626544
 10
457850.0866068127
 20
2550867.899172786
 10
457822.0418421358
 20
2550867.12770383
 10
457806.0903187044
 20
2550863.123828075
 10
457779.9418322815
 20
2550847.864694655
 10
457736.7696719593
 20
2550823.610379981
 10
457730.0355969184
 20
2550819.892298364
 10
457714.5540659053
 20
2550817.812239793
 10
457691.7302847049
 20
2550813.062538548
 10
457668.5996361385
 20
2550807.072558237
 10
457657.426811371
 20
2550808.129876696
 10
457657.1798118472
 20
2550808.238118966
 10
457631.1429610149
 20
2550818.807380302
 10
457599.9383953369
 20
2550835.206366083
 10
457567.9485493017
 20
2550852.841156535
 10
457539.3529327585
 20
2550866.631095324
 10
457511.5902034857
 20
2550882.308377357
 10
457483.4739887788
 20
2550895.480587782
 10
457459.3419714335
 20
2550903.748156071
 10
457441.8381190079
 20
2550910.368299328
 10
457415.0228625771
 20
2550916.759622212
 10
457402.2881498111
 20
2550918.55435418
 10
457379.6885846181
 20
2550921.739362195
 10
457361.3865551144
 20
2550923.858260782
 10
457343.8596642355
 20
2550927.49533264
 10
457339.4073287156
 20
2550928.419257517
 10
457337.6973646083
 20
2550928.961252578
 10
457309.7046812331
 20
2550938.472975504
 10
457301.877369211
 20
2550928.713821869
 10
457288.4466504749
 20
2550910.565303674
 10
457272.4008661384
 20
2550888.777534209
 10
457262.8807137622
 20
2550878.848769392
 10
457255.2246557322
 20
2550875.614475055
 10
457238.4419697734
 20
2550876.772422542
 10
457202.9787069754
 20
2550880.666589245
 10
457184.9498066476
 20
2550842.983883026
 10
457152.2202445819
 20
2550808.70827942
 10
457122.0680644439
 20
2550785.254779347
 10
457094.9915228509
 20
2550762.187639828
 10
457068.5047737131
 20
2550738.376412781
 10
457058.9811114156
 20
2550725.309140106
 10
457037.2438716711
 20
2550688.197568369
 10
457024.525719102
 20
2550666.891105445
 10
457012.5809287122
 20
2550658.708445003
 10
456977.9992705812
 20
2550660.126339913
 10
456954.4083073814
 20
2550662.510525668
 10
456909.0472793552
 20
2550663.863616118
 10
456880.0427086919
 20
2550675.539701195
 10
456848.4739498965
 20
2550682.329527653
 10
456824.263552942
 20
2550682.668377346
 10
456804.2887822783
 20
2550682.722237899
 10
456778.953380203
 20
2550685.15898083
 10
456778.2472873585
 20
2550685.159879154
 10
456746.6685332418
 20
2550687.396438036
 10
456743.375344506
 20
2550687.400452746
 10
456728.3426134293
 20
2550684.340298084
 10
456725.4169366993
 20
2550683.744731131
 10
456724.9175637297
 20
2550683.580747266
 10
456721.8301154158
 20
2550683.584256579
 10
456718.0170115036
 20
2550681.706116622
 10
456693.0517891239
 20
2550674.333668939
 10
456690.9604538806
 20
2550674.3408953
 10
456688.2135209062
 20
2550674.350412998
 10
456683.1470914617
 20
2550674.367942591
 10
456644.0987528046
 20
2550670.121040245
 10
456642.5701368054
 20
2550670.12627696
 10
456639.2709901565
 20
2550670.137539537
 10
456636.5216783164
 20
2550670.146929628
 10
456633.22234593
 20
2550670.158209965
 10
456591.2314397018
 20
2550670.303729567
 10
456590.4564489322
 20
2550670.499533531
 10
456586.2485440778
 20
2550671.562743975
 10
456581.8848401153
 20
2550672.820730463
 10
456493.7820166075
 20
2550686.917619536
 10
456395.9423592748
 20
2550706.573323585
 10
456326.3525653023
 20
2550716.903700742
 10
456325.0285244619
 20
2550716.911903057
 10
456323.5915297988
 20
2550717.207001854
 10
456262.1060689275
 20
2550731.667923877
 10
456258.5350051944
 20
2550731.692061067
 10
456256.6071358641
 20
2550731.705113402
 10
456254.1344874673
 20
2550732.07427986
 10
456207.6410763519
 20
2550743.715128788
 10
456205.6561640761
 20
2550743.733551925
 10
456172.9432617862
 20
2550750.180125847
 10
456171.0618396145
 20
2550750.197989358
 10
456169.8918404509
 20
2550750.35388126
 10
456150.677564949
 20
2550756.705954141
 10
456147.0291575183
 20
2550758.175754197
 10
456143.6391265956
 20
2550758.194118335
 10
456129.665495012
 20
2550758.333815385
 10
456127.7722055027
 20
2550758.352993763
 10
456126.5220079406
 20
2550758.365653653
 10
456107.9876997097
 20
2550757.030408934
 10
456082.8239754565
 20
2550755.975141264
 10
456047.131308555
 20
2550742.324738169
 10
456044.5833986856
 20
2550740.449481151
 10
456043.9571390907
 20
2550740.039991197
 10
456020.1925371997
 20
2550725.989442196
 10
456018.3986786839
 20
2550724.816669751
 10
456016.8591549698
 20
2550723.60805334
 10
456003.9681575456
 20
2550716.48259157
 10
456002.407317529
 20
2550715.975080933
 10
456001.4927845699
 20
2550715.377234471
 10
456000.9344886661
 20
2550715.221945867
 10
455981.0282750482
 20
2550710.765583362
 10
455978.6544444945
 20
2550709.993882192
 10
455976.3164490322
 20
2550709.426040331
 10
455973.0890327168
 20
2550707.846890328
 10
455948.5580364076
 20
2550697.051527652
 10
455947.876976394
 20
2550696.38442294
 10
455917.6511420091
 20
2550680.539657705
 10
455916.1539795488
 20
2550680.548519901
 10
455914.4431156471
 20
2550680.134808391
 10
455893.595973186
 20
2550679.55703326
 10
455892.283855445
 20
2550679.564743702
 10
455891.148681604
 20
2550679.571415573
 10
455888.7175698211
 20
2550679.58569129
 10
455877.4077338571
 20
2550678.633746408
 10
455874.4414809647
 20
2550679.386367446
 10
455873.8312446443
 20
2550679.51091391
 10
455873.3020866127
 20
2550679.776611828
 10
455857.4771082409
 20
2550686.159343464
 10
455855.6008966335
 20
2550686.174622921
 10
455855.40160234
 20
2550686.241953158
 10
455851.502208912
 20
2550686.916057435
 10
455833.3999422639
 20
2550687.858850366
 10
455831.9942002749
 20
2550687.870418016
 10
455830.4698440349
 20
2550687.882968337
 10
455829.650276557
 20
2550687.889713434
 10
455813.1540350264
 20
2550691.044691934
 10
455791.8382180774
 20
2550690.769743237
 10
455789.6813399151
 20
2550690.782073454
 10
455788.9184254563
 20
2550690.786442293
 10
455774.9044934996
 20
2550689.966172024
 10
455771.9930244861
 20
2550688.823945084
 10
455769.4071815169
 20
2550688.195260185
 10
455758.0474833922
 20
2550681.146606256
 10
455756.0894594685
 20
2550680.183792344
 10
455754.5721188438
 20
2550679.060983251
 10
455754.026489045
 20
2550678.792667216
 10
455752.2110446416
 20
2550677.899907434
 10
455747.8640822806
 20
2550675.453908421
 10
455745.5806649127
 20
2550673.198252074
 10
455745.0155928914
 20
2550672.640054489
 10
455723.7522218865
 20
2550659.41178395
 10
455723.6328348099
 20
2550659.372287629
 10
455720.5163218976
 20
2550658.135304774
 10
455718.340434679
 20
2550656.840746931
 10
455684.4186091997
 20
2550641.281188669
 10
455682.1908185567
 20
2550640.650204632
 10
455678.4471783504
 20
2550639.255453057
 10
455675.5410219968
 20
2550638.017477539
 10
455673.7302107939
 20
2550637.246092647
 10
455639.4680335695
 20
2550628.473940739
 10
455638.556309592
 20
2550628.475055709
 10
455635.529561123
 20
2550627.615555909
 10
455600.2195054872
 20
2550621.288710575
 10
455598.9432486474
 20
2550620.013435996
 10
455566.8855148757
 20
2550610.362336731
 10
455566.7445463067
 20
2550610.224247941
 10
455563.6282011769
 20
2550609.461641734
 10
455534.1313039257
 20
2550591.702058425
 10
455533.5279746947
 20
2550591.405852737
 10
455531.6444540054
 20
2550590.666777321
 10
455530.6432830471
 20
2550590.175214125
 10
455518.3334960474
 20
2550586.631877525
 10
455516.2554771231
 20
2550585.81635426
 10
455516.1639775707
 20
2550585.786470427
 10
455514.1281058958
 20
2550585.390020617
 10
455502.2646711612
 20
2550585.103922883
 10
455500.46860825
 20
2550585.556271126
 10
455499.5368566816
 20
2550585.744600347
 10
455498.0685294816
 20
2550586.375497436
 10
455462.8803246887
 20
2550601.548735896
 10
455461.8288048936
 20
2550601.900737281
 10
455458.735863315
 20
2550603.278767473
 10
455412.5103308083
 20
2550621.288970896
 10
455385.3649143792
 20
2550627.348794256
 10
455382.9425393669
 20
2550627.355874527
 10
455382.2377931314
 20
2550627.357904855
 10
455359.8396015284
 20
2550630.376226765
 10
455357.5439317397
 20
2550630.378766268
 10
455354.9228377885
 20
2550630.381697495
 10
455354.0165944253
 20
2550630.382688696
 10
455324.8172905738
 20
2550629.648906114
 10
455321.2315563158
 20
2550628.944964903
 10
455320.12497865
 20
2550628.581569052
 10
455307.6084986645
 20
2550628.609424833
 10
455305.2764306634
 20
2550629.543702125
 10
455304.1519049743
 20
2550629.825993265
 10
455290.4690694102
 20
2550636.314131247
 10
455289.9164189005
 20
2550636.498773629
 10
455288.7943111801
 20
2550637.172504037
 10
455287.7399556723
 20
2550637.700170922
 10
455286.2913853971
 20
2550638.735502333
 10
455266.9632470313
 20
2550654.968807295
 10
455266.1699794215
 20
2550656.02825195
 10
455265.0938253852
 20
2550657.105426022
 10
455264.6173012258
 20
2550658.061691648
 10
455246.9398018639
 20
2550674.42692165
 10
455244.5969259907
 20
2550675.59909944
 10
455243.8684547335
 20
2550676.085032237
 10
455241.3753937258
 20
2550677.581704127
 10
455221.3803934545
 20
2550687.585557144
 10
455220.8592573959
 20
2550687.58593266
 10
455218.7235699558
 20
2550688.44086737
 10
455212.8457541189
 20
2550690.122406112
 10
455181.1557416031
 20
2550698.609522005
 10
455159.2283105338
 20
2550705.619763977
 10
455131.4701089061
 20
2550714.631216339
 10
455129.4191561964
 20
2550714.628729487
 10
455107.9597581727
 20
2550720.548004886
 10
455072.3063408263
 20
2550717.366772937
 10
455048.8936929798
 20
2550717.739886058
 10
455021.8414839187
 20
2550718.115491781
 10
455020.9985955024
 20
2550718.115134726
 10
455017.9772690344
 20
2550718.116734952
 10
454991.6377665799
 20
2550718.152934567
 10
454931.6629763742
 20
2550716.361504933
 10
454892.4852325828
 20
2550718.692327651
 10
454889.4939942488
 20
2550718.698510797
 10
454887.2250569615
 20
2550718.703182213
 10
454884.5785266478
 20
2550718.708650469
 10
454882.6084865461
 20
2550718.712720934
 10
454868.9636528017
 20
2550719.420193054
 10
454868.5888689538
 20
2550719.514389975
 10
454866.3004492958
 20
2550720.08957401
 10
454862.5162313427
 20
2550720.516229718
 10
454858.5516840666
 20
2550721.242871424
 10
454856.7552079152
 20
2550721.50229601
 10
454845.826529771
 20
2550725.159754475
 10
454843.1938091757
 20
2550726.291821691
 10
454840.8850114181
 20
2550727.064447979
 10
454837.945872051
 20
2550727.656295401
 10
454836.1276215746
 20
2550727.918659032
 10
454819.8160600697
 20
2550733.615257422
 10
454817.7135580226
 20
2550734.319113896
 10
454813.5487725035
 20
2550735.013569564
 10
454812.690450868
 20
2550735.012474767
 10
454799.3646760754
 20
2550739.589523244
 10
454791.630105502
 20
2550744.213284145
 10
454789.5150344415
 20
2550744.914555834
 10
454787.5153487795
 20
2550745.710610375
 10
454785.330359232
 20
2550746.435068881
 10
454782.4996695736
 20
2550747.687521425
 10
454726.948341685
 20
2550775.213039168
 10
454663.8960918578
 20
2550806.649360768
 10
454635.7666264523
 20
2550826.28428387
 10
454605.6505983521
 20
2550848.662617361
 10
454605.0690639718
 20
2550849.244285389
 10
454579.6467888378
 20
2550866.478210391
 10
454551.136237079
 20
2550870.754233283
 10
454516.9400662947
 20
2550878.098471474
 10
454508.1454065086
 20
2550878.125510358
 10
454499.4117921922
 20
2550876.416567371
 10
454497.9465271167
 20
2550876.421071136
 10
454496.8121958963
 20
2550876.585748368
 10
454496.0633961818
 20
2550876.712200413
 10
454487.94500953
 20
2550879.430649571
 10
454487.1463757873
 20
2550880.030023729
 10
454484.0443525784
 20
2550881.363171961
 10
454483.51569031
 20
2550881.628029708
 10
454479.0418161245
 20
2550884.985806841
 10
454477.3022227714
 20
2550886.726166514
 10
454475.8451426971
 20
2550887.698477707
 10
454474.6086257986
 20
2550888.688291142
 10
454473.5150341661
 20
2550889.51200482
 10
454471.2438422186
 20
2550891.413983801
 10
454468.8411102977
 20
2550892.863136433
 10
454468.0348918215
 20
2550893.326283298
 10
454463.6010740338
 20
2550898.07413781
 10
454463.4042707015
 20
2550898.271479002
 10
454463.0262302884
 20
2550898.841079785
 10
454461.5182104595
 20
2550901.367583022
 10
454456.401026141
 20
2550906.498505541
 10
454461.6364042417
 20
2550930.268159946
 10
454473.218583548
 20
2550960.997771102
 10
454476.5331182794
 20
2550977.324934094
 10
454485.1166808281
 20
2551038.583852867
 10
454485.1275492733
 20
2551040.580596825
 10
454485.144483061
 20
2551043.691289707
 10
454484.3647027004
 20
2551047.280422133
 10
454483.9008992146
 20
2551050.398119107
 10
454483.613327079
 20
2551053.75443687
 10
454483.3180381953
 20
2551055.581481285
 10
454481.4350490518
 20
2551076.047150859
 10
454481.4417447454
 20
2551077.249522142
 10
454481.4467202461
 20
2551078.142483061
 10
454481.4632921445
 20
2551081.11882498
 10
454481.4756515346
 20
2551083.338293973
 10
454479.2643644885
 20
2551102.262070378
 10
454467.7356505178
 20
2551121.641400949
 10
454467.5751227468
 20
2551122.122850241
 10
454465.4224448068
 20
2551126.419545604
 10
454464.7807247428
 20
2551127.060593212
 10
454456.7941150939
 20
2551141.006254964
 10
454456.3195535615
 20
2551142.190879087
 10
454455.1648776197
 20
2551144.495396383
 10
454450.0715546146
 20
2551154.377980472
 10
454445.6763818135
 20
2551166.340904436
 10
454445.6807608392
 20
2551167.767242053
 10
454445.6834906013
 20
2551168.656764239
 10
454445.7932040997
 20
2551169.084078486
 10
454449.3937161958
 20
2551195.885101559
 10
454449.8233199472
 20
2551198.495332244
 10
454449.820494104
 20
2551199.192337713
 10
454455.3310761222
 20
2551213.855007707
 10
454459.9781015585
 20
2551239.050428282
 10
454459.9896540122
 20
2551242.820150245
 10
454459.9975835398
 20
2551245.40563135
 10
454459.4023040481
 20
2551247.50151094
 10
454459.4066922139
 20
2551248.956878363
 10
454457.3328175947
 20
2551253.112803192
 10
454455.1730212611
 20
2551263.414946001
 10
454451.2944820032
 20
2551309.284526958
 10
454451.2945915495
 20
2551309.36853986
 10
454451.2965026856
 20
2551310.822853457
 10
454451.5889730361
 20
2551347.356454352
 10
454451.5879720839
 20
2551349.506052565
 10
454445.1430191904
 20
2551381.313233739
 10
454445.1468173329
 20
2551382.181499207
 10
454445.1560051292
 20
2551384.278362974
 10
454445.1653832743
 20
2551386.423196459
 10
454443.9359584929
 20
2551409.34636799
 10
454443.231999545
 20
2551411.461746679
 10
454443.1494728246
 20
2551412.219111687
 10
454443.154452004
 20
2551413.837132322
 10
454442.4079245422
 20
2551417.979706961
 10
454442.0975548127
 20
2551420.181572541
 10
454441.8499237248
 20
2551421.428941049
 10
454441.5522332903
 20
2551424.47392904
 10
454437.2765389819
 20
2551445.110528593
 10
454437.2266060753
 20
2551445.366148572
 10
454437.2481758661
 20
2551449.01080433
 10
454435.7108602778
 20
2551451.585155313
 10
454435.607030206
 20
2551452.116696083
 10
454435.1784621489
 20
2551453.197887655
 10
454434.9342492483
 20
2551455.235408606
 10
454426.2643341297
 20
2551481.52260398
 10
454407.6921594125
 20
2551514.257278506
 10
454385.1822821884
 20
2551549.666846457
 10
454370.4259071978
 20
2551589.051115895
 10
454348.5732586963
 20
2551636.185680155
 10
454348.5794916071
 20
2551637.729506567
 10
454318.5857201629
 20
2551688.258862315
 10
454318.588958744
 20
2551688.974656952
 10
454302.0895378385
 20
2551718.613585273
 10
454286.0414597483
 20
2551750.560320597
 10
454267.0158297688
 20
2551790.073891196
 10
454266.0709283778
 20
2551791.477621077
 10
454243.1013379736
 20
2551828.954781405
 10
454242.5797595919
 20
2551829.47664558
 10
454226.3464528197
 20
2551853.116996653
 10
454226.0549544349
 20
2551853.60277745
 10
454225.1800905259
 20
2551855.642752108
 10
454219.9091120415
 20
2551864.633281041
 10
454219.7877180982
 20
2551864.875972386
 10
454218.5888519711
 20
2551867.272707468
 10
454214.9089088838
 20
2551874.629530936
 10
454213.0054899423
 20
2551886.299347449
 10
454215.0138788445
 20
2551920.280565954
 10
454214.2061318813
 20
2551942.013612465
 10
454212.2895590881
 20
2551952.549295574
 10
454195.63700821
 20
2552002.988905981
 10
454184.0191943687
 20
2552032.992108252
 10
454161.8519375954
 20
2552068.533883165
 10
454129.5163285075
 20
2552118.507278119
 10
454105.7365302934
 20
2552156.499576874
 10
454104.2721183262
 20
2552158.452295334
 10
454102.9141480652
 20
2552160.489673104
 10
454078.1573508147
 20
2552205.135596617
 10
454077.3516622699
 20
2552207.154925326
 10
454077.0332493162
 20
2552207.792693701
 10
454072.0790209729
 20
2552222.255145849
 10
454071.9910883683
 20
2552222.431264509
 10
454071.4408689388
 20
2552225.207392462
 10
454069.4099994482
 20
2552237.120666791
 10
454069.4208420165
 20
2552240.737345219
 10
454068.2886910484
 20
2552243.004633313
 10
454068.1588013852
 20
2552243.527439849
 10
454061.641019966
 20
2552269.774405403
 10
454059.9902716119
 20
2552273.852206344
 10
454059.9902716119
 20
2552273.852206344
 10
454059.9902716119
 20
2552273.852206344
 10
454059.9902716119
 20
2552273.852206344
 10
454059.9902716119
 20
2552273.852206344
 10
454059.9902716119
 20
2552273.852206344
 10
454059.9902716119
 20
2552273.852206344
 10
454059.9902716119
 20
2552273.852206344
 10
454059.9902716119
 20
2552273.852206344
 10
454056.9915994193
 20
2552277.926358136
 10
454056.8444934988
 20
2552278.147817299
 10
454055.8916722311
 20
2552279.678255035
 10
454049.6466443598
 20
2552293.896457472
 10
454048.2395557813
 20
2552295.309491941
 10
454047.6407238485
 20
2552296.514948376
 10
454044.4633064653
 20
2552299.706028047
 10
454041.252648244
 20
2552302.930486731
 10
453999.8820097753
 20
2552353.111608866
 10
453998.8720766309
 20
2552354.122238685
 10
453997.3606628951
 20
2552355.634718896
 10
453996.4538107203
 20
2552356.542220511
 10
453994.7771436742
 20
2552358.220051668
 10
453993.5876188418
 20
2552359.173256897
 10
453985.8648112269
 20
2552368.043314077
 10
453984.0673804831
 20
2552369.842033489
 10
453982.1790558749
 20
2552371.261308045
 10
453979.2669533425
 20
2552373.450016219
 10
453976.5121845555
 20
2552375.10942795
 10
453966.4459048779
 20
2552379.403841527
 10
453964.6997905053
 20
2552379.663812193
 10
453963.6128266038
 20
2552380.210509321
 10
453960.2216417832
 20
2552380.795406059
 10
453957.7412690917
 20
2552381.305061577
 10
453954.436979798
 20
2552381.33044778
 10
453936.759628141
 20
2552379.660761423
 10
453935.8448908568
 20
2552379.667675748
 10
453934.0889784023
 20
2552379.680944599
 10
453931.9510117635
 20
2552379.396055121
 10
453930.6226925265
 20
2552379.406070004
 10
453918.0797136203
 20
2552380.714278751
 10
453789.4161916558
 20
2552455.505274275
 10
453733.8030633925
 20
2552488.041546345
 10
453731.8046414173
 20
2552489.047207606
 10
453729.8250187098
 20
2552489.84679079
 10
453729.0819893871
 20
2552490.343749447
 10
453711.2497163795
 20
2552501.403379475
 10
453711.029459469
 20
2552501.49206586
 10
453710.8067262748
 20
2552501.714671154
 10
453708.1147106738
 20
2552503.332609783
 10
453706.4557841179
 20
2552504.370828413
 10
453705.1619134504
 20
2552505.448828234
 10
453703.7041892539
 20
2552506.614919499
 10
453701.8442527401
 20
2552508.208698719
 10
453683.3671399917
 20
2552524.881370776
 10
453682.3723665537
 20
2552525.875306297
 10
453681.0791302022
 20
2552527.167457019
 10
453679.2625997715
 20
2552528.679332439
 10
453678.1317862232
 20
2552529.810289509
 10
453675.5586223715
 20
2552532.386167143
 10
453653.5829365607
 20
2552556.189627831
 10
453614.6264644774
 20
2552617.637914041
 10
453593.7809270788
 20
2552650.649469236
 10
453593.0369395533
 20
2552650.839947114
 10
453585.3059068581
 20
2552654.890812593
 10
453574.3653983635
 20
2552660.195582345
 10
453571.7912333833
 20
2552661.047628484
 10
453570.4443930656
 20
2552661.493422907
 10
453570.0587780116
 20
2552661.589079329
 10
453569.5125345063
 20
2552661.86076395
 10
453544.3368195219
 20
2552671.523736276
 10
453543.1962810232
 20
2552672.09290188
 10
453542.3760199677
 20
2552672.420431102
 10
453542.2921879351
 20
2552672.476254091
 10
453532.7599419925
 20
2552678.24449754
 10
453531.456363408
 20
2552679.287502184
 10
453528.9705079483
 20
2552680.942876472
 10
453528.4902481687
 20
2552681.230565851
 10
453527.8757472332
 20
2552681.846594269
 10
453522.8316943427
 20
2552691.841942103
 10
453480.3086485388
 20
2552756.364060229
 10
453479.222443351
 20
2552758.012217009
 10
453478.7574309379
 20
2552758.943539954
 10
453477.3994074386
 20
2552760.754899457
 10
453475.7095582654
 20
2552763.290317361
 10
453473.0270646846
 20
2552765.962718193
 10
453471.3217237523
 20
2552767.904953254
 10
453463.6857776771
 20
2552777.272895226
 10
453462.0883202962
 20
2552779.307434553
 10
453459.3864948809
 20
2552782.019671751
 10
453457.2134291705
 20
2552783.838810275
 10
453454.9980192287
 20
2552785.746140409
 10
453451.803743606
 20
2552788.313714083
 10
453450.5267131906
 20
2552789.340192797
 10
453447.5882990213
 20
2552791.963215538
 10
453443.9866236443
 20
2552794.596529563
 10
453422.5974182005
 20
2552811.727332166
 10
453392.6996805264
 20
2552829.879129487
 10
453392.1905580885
 20
2552830.135197189
 10
453391.6616264884
 20
2552830.560095912
 10
453390.9179574169
 20
2552831.157499247
 10
453382.4898670367
 20
2552840.598056532
 10
453379.666391557
 20
2552842.301200894
 10
453379.2672421813
 20
2552842.568626101
 10
453378.3170034666
 20
2552843.284602731
 10
453378.1516756191
 20
2552843.409173051
 10
453377.7692865856
 20
2552843.857181718
 10
453375.1154509555
 20
2552848.123673211
 10
453366.1327085062
 20
2552861.618990356
 10
453351.632497265
 20
2552878.750765767
 10
453348.8025180441
 20
2552880.18503593
 10
453322.7590805927
 20
2552896.982337691
 10
453266.2744194086
 20
2552925.507835045
 10
453265.954633002
 20
2552925.749679672
 10
453249.7593492989
 20
2552938.233880437
 10
453249.2432453814
 20
2552938.75465684
 10
453248.1311702059
 20
2552939.653504366
 10
453247.404845634
 20
2552940.5324235
 10
453237.6555977239
 20
2552952.582764718
 10
453219.7851368279
 20
2552971.695080637
 10
453219.0529250384
 20
2552972.434816239
 10
453216.2004453673
 20
2552975.316545066
 10
453198.1447765558
 20
2552986.408109382
 10
453196.7444656117
 20
2552986.881726053
 10
453196.2716809679
 20
2552987.120579681
 10
453193.4750375493
 20
2552988.533480963
 10
453146.9889205991
 20
2553008.501350824
 10
453086.1017932571
 20
2553041.399299798
 10
453085.0784840818
 20
2553042.43856475
 10
453081.7552245731
 20
2553044.140438673
 10
453071.8238162203
 20
2553049.850121889
 10
453070.3224140704
 20
2553050.619082166
 10
453069.0791833369
 20
2553051.255809967
 10
453066.2388528721
 20
2553052.71049673
 10
453062.8466693989
 20
2553053.314530643
 10
453050.6989266657
 20
2553055.995812723
 10
453048.5217492784
 20
2553056.020882231
 10
453047.0411470842
 20
2553056.037937754
 10
453025.0761366218
 20
2553056.605618198
 10
453023.785726924
 20
2553056.620482195
 10
452963.9531758207
 20
2553048.387207415
 10
452875.9063497092
 20
2553032.839305747
 10
452848.1130844127
 20
2553024.474656122
 10
452818.3063965228
 20
2553017.397701596
 10
452759.6090797135
 20
2553009.930571874
 10
452759.2846845712
 20
2553010.013915768
 10
452756.0553155685
 20
2553010.443297247
 10
452748.420393304
 20
2553011.521553703
 10
452747.608614007
 20
2553011.930839303
 10
452746.7926577067
 20
2553012.342213547
 10
452745.2326687252
 20
2553013.590766737
 10
452733.6977084885
 20
2553019.569730824
 10
452647.0053466624
 20
2553082.841161677
 10
452588.2351253016
 20
2553121.727566276
 10
452538.9748307001
 20
2553161.64173621
 10
452444.3823036229
 20
2553230.156893591
 10
452380.6422200414
 20
2553278.555706498
 10
452323.0780308661
 20
2553311.348259747
 10
452239.1428658397
 20
2553362.547437465
 10
452238.0809086739
 20
2553363.345981405
 10
452234.0592900182
 20
2553367.387851224
 10
452195.7758123675
 20
2553394.056485381
 10
452194.3076602222
 20
2553395.527264628
 10
452192.0368976236
 20
2553397.802168635
 10
452187.0892867926
 20
2553401.51675985
 10
452154.9048382335
 20
2553427.727202857
 10
452151.7124907219
 20
2553430.921215932
 10
452150.0746378388
 20
2553432.014303236
 10
452117.4329283009
 20
2553465.205608624
 10
452081.7474110599
 20
2553511.600476181
 10
452051.4529456518
 20
2553540.760960877
 10
452013.5451062471
 20
2553567.207305498
 10
452009.1457068853
 20
2553569.851282585
 10
451944.5719470533
 20
2553589.613413112
 10
451957.9937035373
 20
2553612.727673649
 10
451988.2511523685
 20
2553655.77785035
 10
452029.8157250883
 20
2553718.537598273
 10
452058.9125344045
 20
2553779.97158602
 10
452071.4157042482
 20
2553804.992274026
 10
452089.1756600246
 20
2553840.532725121
 10
452111.9787417169
 20
2553894.310119624
 10
452128.2704370503
 20
2553938.890966432
 10
452128.7525509141
 20
2553941.244058795
 10
452129.8883173548
 20
2553945.142309087
 10
452129.9603298875
 20
2553968.822973859
 10
452104.9128519296
 20
2553979.718203997
 10
452102.8617748967
 20
2553980.405860647
 10
452100.9464339851
 20
2553981.366429372
 10
452096.5495318066
 20
2553983.258156699
 10
452091.7965368425
 20
2553984.061714877
 10
452090.8621196406
 20
2553984.064541641
 10
452079.1929422006
 20
2553987.330427261
 10
452078.9862741006
 20
2553987.669579221
 10
452079.2089368882
 20
2553988.55045156
 10
452085.4078137435
 20
2554009.649938372
 10
452085.4581214233
 20
2554009.799532606
 10
452086.7427419346
 20
2554012.352437728
 10
452086.7501149893
 20
2554015.463349724
 10
452087.275471896
 20
2554017.283882024
 10
452091.7093233186
 20
2554044.531563367
 10
452092.0490029279
 20
2554045.869348713
 10
452092.6557958028
 20
2554048.847506416
 10
452094.4719830289
 20
2554072.824904683
 10
452085.8810387646
 20
2554115.794312345
 10
452084.6359225057
 20
2554119.983523237
 10
452083.6100264989
 20
2554124.132525999
 10
452081.6830463683
 20
2554128.011816312
 10
452081.107310799
 20
2554129.461907658
 10
452076.7782486201
 20
2554140.670147764
 10
452074.4336220324
 20
2554145.365889519
 10
452074.0539102908
 20
2554146.130218153
 10
452073.503665056
 20
2554147.243345695
 10
452072.8591006647
 20
2554148.878520817
 10
452071.5019790285
 20
2554152.089379373
 10
452069.9288152465
 20
2554155.274862999
 10
452067.5539628078
 20
2554159.115781127
 10
452063.052000718
 20
2554165.763379498
 10
452062.6020200436
 20
2554167.137825885
 10
452062.0683661882
 20
2554168.584037655
 10
452061.837412271
 20
2554180.429693144
 10
452064.992995096
 20
2554189.437075072
 10
452065.807967697
 20
2554191.445831861
 10
452066.9541910236
 20
2554194.829038572
 10
452067.4469976209
 20
2554197.233024831
 10
452068.352474025
 20
2554200.781627149
 10
452068.7780174804
 20
2554204.061594762
 10
452069.4158397345
 20
2554206.867736247
 10
452069.897652026
 20
2554208.755962616
 10
452075.4557570472
 20
2554241.682635133
 10
452070.1064497571
 20
2554272.55772977
 10
452069.1072128971
 20
2554275.581330631
 10
452051.5326533324
 20
2554307.917830589
 10
452049.3377605295
 20
2554309.574072492
 10
452019.6938463495
 20
2554350.440553447
 10
452018.3488500092
 20
2554352.788757497
 10
451977.2948123065
 20
2554419.047636385
 10
451950.0307120098
 20
2554448.864518192
 10
451948.9041078192
 20
2554449.988480517
 10
451918.4544053053
 20
2554482.613252642
 10
451874.6993591618
 20
2554578.23010954
 10
451838.1901598817
 20
2554672.859784963
 10
451789.0685627212
 20
2554743.344539195
 10
451764.0521675399
 20
2554794.272926359
 10
451731.7207388212
 20
2554884.66475962
 10
451717.8361934568
 20
2554909.022540463
 10
451629.4535738256
 20
2554982.607761067
 10
451629.4535738256
 20
2554982.607761067
 10
451629.4535738256
 20
2554982.607761067
  0
LWPOLYLINE
  5
298
330
1F
100
AcDbEntity
  8
0
 48
1.05
100
AcDbPolyline
 90
       25
 70
   128
 43
0.0
 10
459404.0590333468
 20
2551634.870217909
 10
459374.6371970317
 20
2551554.748146568
 10
459400.4276225893
 20
2551539.404682429
 10
459449.394877246
 20
2551507.113246276
 10
459514.2358266111
 20
2551470.704606368
 10
459942.7225221309
 20
2551277.584263135
 10
459957.7409917563
 20
2551269.738113173
 10
459996.0791848519
 20
2551233.692430823
 10
459990.697007449
 20
2551201.995169483
 10
459983.7952094328
 20
2551170.996384794
 10
459965.6236919442
 20
2551142.159639833
 10
459938.6747299134
 20
2551094.429592438
 10
459927.8967385571
 20
2551075.741656791
 10
459910.6344480687
 20
2551027.223599898
 10
459896.8776621236
 20
2550991.533453565
 10
459878.1104685129
 20
2550950.797417619
 10
459868.0284168092
 20
2550928.415945879
 10
459856.6314820657
 20
2550913.965544544
 10
459723.6708234638
 20
2550710.032109687
 10
459716.654899153
 20
2550683.049855321
 10
459572.4000122808
 20
2550515.028337001
 10
459553.7804669783
 20
2550493.727007723
 10
459544.313525929
 20
2550475.111368128
 10
459539.4639670772
 20
2550465.575274123
 10
459522.7676128767
 20
2550438.919781875
  0
ENDSEC
  0
SECTION
  2
OBJECTS
  0
DICTIONARY
  5
C
330
0
100
AcDbDictionary
281
     1
  3
ACAD_COLOR
350
73
  3
ACAD_GROUP
350
D
  3
ACAD_LAYOUT
350
1A
  3
ACAD_MATERIAL
350
72
  3
ACAD_MLEADERSTYLE
350
D7
  3
ACAD_MLINESTYLE
350
17
  3
ACAD_PLOTSETTINGS
350
19
  3
ACAD_PLOTSTYLENAME
350
E
  3
ACAD_SCALELIST
350
B6
  3
ACAD_TABLESTYLE
350
86
  3
ACAD_VISUALSTYLE
350
99
  3
ACDB_RECOMPOSE_DATA
350
FF
  3
AcDbVariableDictionary
350
66
  3
AEC_PROPERTY_SET_DEFS
350
230
  3
DWGPROPS
350
2C8
  0
DICTIONARY
  5
21C
330
2
100
AcDbDictionary
280
     1
281
     1
  3
ACAD_LAYERSTATES
360
21D
  0
DICTIONARY
  5
E6
330
10
100
AcDbDictionary
280
     1
281
     1
  3
ADSK_XREC_LAYER_RECONCILED
360
241
  0
DICTIONARY
  5
73
102
{ACAD_REACTORS
330
C
102
}
330
C
100
AcDbDictionary
281
     1
  0
DICTIONARY
  5
D
102
{ACAD_REACTORS
330
C
102
}
330
C
100
AcDbDictionary
281
     1
  0
DICTIONARY
  5
1A
102
{ACAD_REACTORS
330
C
102
}
330
C
100
AcDbDictionary
281
     1
  3
Layout1
350
59
  3
Layout2
350
5E
  3
Model
350
22
  0
DICTIONARY
  5
72
102
{ACAD_REACTORS
330
C
102
}
330
C
100
AcDbDictionary
281
     1
  3
ByBlock
350
97
  3
ByLayer
350
96
  3
Global
350
98
  0
DICTIONARY
  5
D7
102
{ACAD_REACTORS
330
C
102
}
330
C
100
AcDbDictionary
281
     1
  3
Standard
350
D8
  0
DICTIONARY
  5
17
102
{ACAD_REACTORS
330
C
102
}
330
C
100
AcDbDictionary
281
     1
  3
Standard
350
18
  0
DICTIONARY
  5
19
102
{ACAD_REACTORS
330
C
102
}
330
C
100
AcDbDictionary
281
     1
  0
ACDBDICTIONARYWDFLT
  5
E
102
{ACAD_REACTORS
330
C
102
}
330
C
100
AcDbDictionary
281
     1
  3
Normal
350
F
100
AcDbDictionaryWithDefault
340
F
  0
DICTIONARY
  5
B6
102
{ACAD_REACTORS
330
C
102
}
330
C
100
AcDbDictionary
281
     1
  3
*A1
350
152
  3
*A10
350
1AD
  3
*A100
350
202
  3
*A101
350
21A
  3
*A102
350
203
  3
*A103
350
204
  3
*A104
350
1BB
  3
*A105
350
163
  3
*A106
350
205
  3
*A107
350
206
  3
*A108
350
207
  3
*A109
350
208
  3
*A11
350
1AE
  3
*A110
350
209
  3
*A111
350
20A
  3
*A112
350
1BC
  3
*A113
350
21B
  3
*A114
350
20B
  3
*A115
350
20C
  3
*A116
350
20D
  3
*A117
350
166
  3
*A118
350
167
  3
*A119
350
168
  3
*A12
350
1AF
  3
*A120
350
1BE
  3
*A121
350
169
  3
*A122
350
16A
  3
*A123
350
16B
  3
*A124
350
16C
  3
*A125
350
16D
  3
*A126
350
20E
  3
*A127
350
16E
  3
*A128
350
154
  3
*A129
350
16F
  3
*A13
350
215
  3
*A130
350
170
  3
*A131
350
171
  3
*A132
350
15C
  3
*A133
350
172
  3
*A134
350
173
  3
*A135
350
174
  3
*A136
350
175
  3
*A137
350
164
  3
*A138
350
176
  3
*A139
350
177
  3
*A14
350
1B0
  3
*A140
350
178
  3
*A141
350
155
  3
*A142
350
179
  3
*A143
350
17A
  3
*A144
350
1BF
  3
*A145
350
17B
  3
*A146
350
17C
  3
*A147
350
17D
  3
*A148
350
20F
  3
*A149
350
17E
  3
*A15
350
1B1
  3
*A150
350
17F
  3
*A151
350
180
  3
*A152
350
181
  3
*A153
350
182
  3
*A154
350
156
  3
*A155
350
183
  3
*A156
350
1C0
  3
*A157
350
184
  3
*A158
350
185
  3
*A159
350
210
  3
*A16
350
15B
  3
*A160
350
186
  3
*A161
350
187
  3
*A162
350
188
  3
*A163
350
189
  3
*A164
350
18A
  3
*A165
350
18B
  3
*A166
350
18C
  3
*A167
350
157
  3
*A168
350
1C1
  3
*A169
350
18D
  3
*A17
350
1C5
  3
*A170
350
211
  3
*A171
350
18E
  3
*A172
350
18F
  3
*A173
350
190
  3
*A174
350
191
  3
*A175
350
192
  3
*A176
350
193
  3
*A177
350
194
  3
*A178
350
195
  3
*A179
350
196
  3
*A18
350
1B2
  3
*A180
350
1C2
  3
*A181
350
212
  3
*A182
350
158
  3
*A183
350
197
  3
*A184
350
198
  3
*A185
350
199
  3
*A186
350
19A
  3
*A187
350
19B
  3
*A188
350
19C
  3
*A189
350
19D
  3
*A19
350
1B3
  3
*A190
350
19E
  3
*A191
350
19F
  3
*A192
350
213
  3
*A193
350
1C3
  3
*A194
350
1A0
  3
*A195
350
159
  3
*A196
350
1A1
  3
*A197
350
1A2
  3
*A198
350
1A3
  3
*A199
350
1A4
  3
*A2
350
214
  3
*A20
350
1B4
  3
*A200
350
1A5
  3
*A201
350
1A6
  3
*A202
350
1A7
  3
*A21
350
1C6
  3
*A22
350
1C7
  3
*A23
350
1C8
  3
*A24
350
216
  3
*A25
350
15D
  3
*A26
350
1C9
  3
*A27
350
1CA
  3
*A28
350
1CB
  3
*A29
350
1CC
  3
*A3
350
1A8
  3
*A30
350
1CD
  3
*A31
350
1B5
  3
*A32
350
1CE
  3
*A33
350
1CF
  3
*A34
350
1D0
  3
*A35
350
1BD
  3
*A36
350
1D1
  3
*A37
350
1D2
  3
*A38
350
15E
  3
*A39
350
1D3
  3
*A4
350
1C4
  3
*A40
350
1D4
  3
*A41
350
1D5
  3
*A42
350
1D6
  3
*A43
350
1B6
  3
*A44
350
1D7
  3
*A45
350
1D8
  3
*A46
350
217
  3
*A47
350
1D9
  3
*A48
350
1DA
  3
*A49
350
1DB
  3
*A5
350
1A9
  3
*A50
350
1DC
  3
*A51
350
15F
  3
*A52
350
1DD
  3
*A53
350
1DE
  3
*A54
350
1DF
  3
*A55
350
1B7
  3
*A56
350
1E0
  3
*A57
350
218
  3
*A58
350
1E1
  3
*A59
350
1E2
  3
*A6
350
1AA
  3
*A60
350
1E3
  3
*A61
350
1E4
  3
*A62
350
1E5
  3
*A63
350
1E6
  3
*A64
350
160
  3
*A65
350
1E7
  3
*A66
350
1E8
  3
*A67
350
1B8
  3
*A68
350
153
  3
*A69
350
1E9
  3
*A7
350
15A
  3
*A70
350
1EA
  3
*A71
350
1EB
  3
*A72
350
1EC
  3
*A73
350
1ED
  3
*A74
350
1EE
  3
*A75
350
1EF
  3
*A76
350
1F0
  3
*A77
350
161
  3
*A78
350
1F1
  3
*A79
350
165
  3
*A8
350
1AB
  3
*A80
350
1B9
  3
*A81
350
1F2
  3
*A82
350
1F3
  3
*A83
350
1F4
  3
*A84
350
1F5
  3
*A85
350
1F6
  3
*A86
350
1F7
  3
*A87
350
1F8
  3
*A88
350
1F9
  3
*A89
350
1FA
  3
*A9
350
1AC
  3
*A90
350
219
  3
*A91
350
162
  3
*A92
350
1BA
  3
*A93
350
1FB
  3
*A94
350
1FC
  3
*A95
350
1FD
  3
*A96
350
1FE
  3
*A97
350
1FF
  3
*A98
350
200
  3
*A99
350
201
  3
A0
350
B7
  3
A1
350
124
  3
A2
350
125
  3
A3
350
126
  3
A4
350
127
  3
A5
350
128
  3
A6
350
129
  3
A7
350
12A
  3
A8
350
12B
  3
A9
350
12C
  3
B0
350
12D
  3
B1
350
12E
  3
B2
350
12F
  3
B3
350
130
  3
B4
350
131
  3
B5
350
132
  3
B6
350
133
  3
B7
350
134
  3
B8
350
135
  3
B9
350
136
  3
C0
350
137
  3
C1
350
138
  3
C2
350
139
  3
C3
350
13A
  3
C4
350
13B
  3
C5
350
13C
  3
C6
350
13D
  3
C7
350
13E
  3
C8
350
13F
  3
C9
350
140
  3
D0
350
141
  3
D1
350
142
  3
D2
350
143
  0
DICTIONARY
  5
86
102
{ACAD_REACTORS
330
C
102
}
330
C
100
AcDbDictionary
281
     1
  3
Standard
350
87
  0
DICTIONARY
  5
99
102
{ACAD_REACTORS
330
C
102
}
330
C
100
AcDbDictionary
281
     1
  3
2dWireframe
350
9F
  3
3D Hidden
350
A1
  3
3dWireframe
350
A0
  3
Basic
350
9E
  3
Brighten
350
A5
  3
ColorChange
350
A9
  3
Conceptual
350
A2
  3
Dim
350
A4
  3
Facepattern
350
A8
  3
Flat
350
9A
  3
FlatWithEdges
350
9B
  3
Gouraud
350
9C
  3
GouraudWithEdges
350
9D
  3
Linepattern
350
A7
  3
Realistic
350
A3
  3
Thicken
350
A6
  0
XRECORD
  5
FF
102
{ACAD_REACTORS
330
C
102
}
330
C
100
AcDbXrecord
280
     1
 90
        1
330
87
  0
DICTIONARY
  5
66
102
{ACAD_REACTORS
330
C
102
}
330
C
100
AcDbDictionary
281
     1
  3
CANNOSCALE
350
F0
  3
CMLEADERSTYLE
350
EF
  3
CTABLESTYLE
350
89
  3
DIMASSOC
350
67
  3
HIDETEXT
350
6B
  3
INDEXCTL
350
2A4
  3
LIGHTINGUNITS
350
249
  3
MSLTSCALE
350
2A2
  3
SORTENTS
350
2A3
  0
DICTIONARY
  5
230
102
{ACAD_REACTORS
330
C
102
}
330
C
100
AcDbDictionary
281
     1
  0
XRECORD
  5
2C8
102
{ACAD_REACTORS
330
C
102
}
330
C
100
AcDbXrecord
280
     1
  1
DWGPROPS COOKIE
  2

  3

  4

  6

  7

  8
asb
  9

300
=
301
=
302
=
303
=
304
=
305
=
306
=
307
=
308
=
309
=
 40
0.0051665509259259
 41
2457505.544535776
 42
2457535.499305764
  1

 90
        0
  0
DICTIONARY
  5
21D
102
{ACAD_REACTORS
330
21C
102
}
330
21C
100
AcDbDictionary
281
     1
  0
XRECORD
  5
241
102
{ACAD_REACTORS
330
E6
102
}
330
E6
100
AcDbXrecord
280
     1
290
     1
  0
LAYOUT
  5
59
102
{ACAD_XDICTIONARY
360
2CB
102
}
102
{ACAD_REACTORS
330
1A
102
}
330
1A
100
AcDbPlotSettings
  1

  2
None
  4

  6

 40
0.0
 41
0.0
 42
0.0
 43
0.0
 44
0.0
 45
0.0
 46
0.0
 47
0.0
 48
0.0
 49
0.0
140
0.0
141
0.0
142
1.0
143
1.0
 70
   688
 72
     0
 73
     0
 74
     5
  7

 75
    16
147
1.0
148
0.0
149
0.0
100
AcDbLayout
  1
Layout1
 70
     1
 71
     1
 10
0.0
 20
0.0
 11
12.0
 21
9.0
 12
0.0
 22
0.0
 32
0.0
 14
0.0
 24
0.0
 34
0.0
 15
0.0
 25
0.0
 35
0.0
146
0.0
 13
0.0
 23
0.0
 33
0.0
 16
1.0
 26
0.0
 36
0.0
 17
0.0
 27
1.0
 37
0.0
 76
     0
330
58
  0
LAYOUT
  5
5E
102
{ACAD_XDICTIONARY
360
2CD
102
}
102
{ACAD_REACTORS
330
1A
102
}
330
1A
100
AcDbPlotSettings
  1

  2
None
  4

  6

 40
0.0
 41
0.0
 42
0.0
 43
0.0
 44
0.0
 45
0.0
 46
0.0
 47
0.0
 48
0.0
 49
0.0
140
0.0
141
0.0
142
1.0
143
1.0
 70
   688
 72
     0
 73
     0
 74
     5
  7

 75
    16
147
1.0
148
0.0
149
0.0
100
AcDbLayout
  1
Layout2
 70
     1
 71
     2
 10
0.0
 20
0.0
 11
12.0
 21
9.0
 12
0.0
 22
0.0
 32
0.0
 14
0.0
 24
0.0
 34
0.0
 15
0.0
 25
0.0
 35
0.0
146
0.0
 13
0.0
 23
0.0
 33
0.0
 16
1.0
 26
0.0
 36
0.0
 17
0.0
 27
1.0
 37
0.0
 76
     0
330
5D
  0
LAYOUT
  5
22
102
{ACAD_XDICTIONARY
360
2C9
102
}
102
{ACAD_REACTORS
330
1A
102
}
330
1A
100
AcDbPlotSettings
  1

  2
none_device
  4
ANSI_A_(8.50_x_11.00_Inches)
  6

 40
6.349999904632567
 41
19.04999923706055
 42
6.350006103515625
 43
19.04998779296875
 44
215.8999938964844
 45
279.3999938964844
 46
0.0
 47
0.0
 48
0.0
 49
0.0
140
0.0
141
0.0
142
1.0
143
2.584895464708373
 70
 11952
 72
     0
 73
     1
 74
     0
  7

 75
     0
147
0.3868628397755418
148
0.0
149
0.0
100
AcDbLayout
  1
Model
 70
     1
 71
     0
 10
0.0
 20
0.0
 11
12.0
 21
9.0
 12
0.0
 22
0.0
 32
0.0
 14
0.0
 24
0.0
 34
0.0
 15
0.0
 25
0.0
 35
0.0
146
0.0
 13
0.0
 23
0.0
 33
0.0
 16
1.0
 26
0.0
 36
0.0
 17
0.0
 27
1.0
 37
0.0
 76
     0
330
1F
331
94
  0
MATERIAL
  5
97
102
{ACAD_XDICTIONARY
360
2BE
102
}
102
{ACAD_REACTORS
330
72
102
}
330
72
100
AcDbMaterial
  1
ByBlock
  0
MATERIAL
  5
96
102
{ACAD_XDICTIONARY
360
2BC
102
}
102
{ACAD_REACTORS
330
72
102
}
330
72
100
AcDbMaterial
  1
ByLayer
  0
MATERIAL
  5
98
102
{ACAD_XDICTIONARY
360
110
102
}
102
{ACAD_REACTORS
330
72
102
}
330
72
100
AcDbMaterial
  1
Global
 43
0.0208000000566244
 43
0.0
 43
0.0
 43
0.0
 43
0.0
 43
0.0208000000566244
 43
0.0
 43
0.0
 43
0.0
 43
0.0
 43
1.0
 43
0.0
 43
0.0
 43
0.0
 43
0.0
 43
1.0
 49
0.0208000000566244
 49
0.0
 49
0.0
 49
0.0
 49
0.0
 49
0.0208000000566244
 49
0.0
 49
0.0
 49
0.0
 49
0.0
 49
1.0
 49
0.0
 49
0.0
 49
0.0
 49
0.0
 49
1.0
142
0.0208000000566244
142
0.0
142
0.0
142
0.0
142
0.0
142
0.0208000000566244
142
0.0
142
0.0
142
0.0
142
0.0
142
1.0
142
0.0
142
0.0
142
0.0
142
0.0
142
1.0
144
0.0208000000566244
144
0.0
144
0.0
144
0.0
144
0.0
144
0.0208000000566244
144
0.0
144
0.0
144
0.0
144
0.0
144
1.0
144
0.0
144
0.0
144
0.0
144
0.0
144
1.0
1001
ACAD
1070
    -1
1070
     3
1070
     0
1000

1071
        0
1070
     0
  0
MLEADERSTYLE
  5
D8
102
{ACAD_REACTORS
330
D7
102
}
330
D7
100
AcDbMLeaderStyle
170
     2
171
     1
172
     0
 90
        2
 40
0.0
 41
0.0
173
     1
 91
-1056964608
340
14
 92
       -2
290
     1
 42
0.09
291
     1
 43
0.36
  3
Standard
 44
0.18
300

342
11
174
     1
178
     1
175
     1
176
     0
 93
-1056964608
 45
0.18
292
     0
297
     0
 46
0.18
 94
-1056964608
 47
1.0
 49
1.0
140
1.0
293
     1
141
0.0
294
     1
177
     0
142
1.0
295
     0
296
     0
143
0.125
1001
ACAD_MLEADERVER
1070
     2
  0
MLINESTYLE
  5
18
102
{ACAD_REACTORS
330
17
102
}
330
17
100
AcDbMlineStyle
  2
STANDARD
 70
     0
  3

 62
   256
 51
90.0
 52
90.0
 71
     2
 49
0.5
 62
   256
  6
BYLAYER
 49
-0.5
 62
   256
  6
BYLAYER
  0
ACDBPLACEHOLDER
  5
F
102
{ACAD_REACTORS
330
E
102
}
330
E
  0
SCALE
  5
152
102
{ACAD_REACTORS
330
B6
102
}
330
B6
100
AcDbScale
 70
     0
300
1" = 1'
140
1.0
141
1.0
290
     0
  0
SCALE
  5
1AD
102
{ACAD_REACTORS
330
B6
102
}
330
B6
100
AcDbScale
 70
     0
300
1:1_15
140
1.0
141
1.0
290
     0
  0
SCALE
  5
202
102
{ACAD_REACTORS
330
B6
102
}
330
B6
100
AcDbScale
 70
     0
300
1:100_1
140
1.0
141
100.0
290
     0
1001
ACAD
1000
AcRTDxfName
1000
SCALE
1000
AcRTDxfName
1000
SCALE
1000
AcRTDxfName
1000
SCALE
1000
AcRTDxfName
1000
SCALE
1000
AcRTDxfName
1000
SCALE
1000
AcRTDxfName
1000
SCALE
1000
AcRTDxfName
1000
SCALE
1000
AcRTDxfName
1000
SCALE
1000
AcRTDxfName
1000
SCALE
1000
AcRTDxfName
1000
SCALE
1000
AcRTDxfName
1000
SCALE
1000
AcRTDxfName
1000
SCALE
1000
AcRTDxfName
1000
SCALE
1000
AcRTDxfName
1000
SCALE
1000
AcRTDxfName
1000
SCALE
1000
AcRTDxfName
1000
SCALE
1000
AcRTDxfName
1000
SCALE
1000
AcRTDxfName
1000
SCALE
1000
AcRTDxfName
1000
SCALE
1000
AcRTDxfName
1000
SCALE
1000
AcRTDxfName
1000
SCALE
1000
AcRTDxfName
1000
SCALE
1000
AcRTDxfName
1000
SCALE
1000
AcRTDxfName
1000
SCALE
1000
AcRTDxfName
1000
SCALE
1000
AcRTDxfName
1000
SCALE
1000
AcRTDxfName
1000
SCALE
1000
AcRTDxfName
1000
SCALE
1000
AcRTDxfName
1000
SCALE
1000
AcRTDxfName
1000
SCALE
1000
AcRTDxfName
1000
SCALE
1000
AcRTDxfName
1000
SCALE
  0
SCALE
  5
21A
102
{ACAD_REACTORS
330
B6
102
}
330
B6
100
AcDbScale
 70
     0
300
1:2500
140
1.0
141
2.5
290
     0
1001
ACAD
1000
AcRTDxfName
1000
SCALE
1000
AcRTDxfName
1000
SCALE
1000
AcRTDxfName
1000
SCALE
1000
AcRTDxfName
1000
SCALE
1000
AcRTDxfName
1000
SCALE
1000
AcRTDxfName
1000
SCALE
1000
AcRTDxfName
1000
SCALE
1000
AcRTDxfName
1000
SCALE
1000
AcRTDxfName
1000
SCALE
1000
AcRTDxfName
1000
SCALE
1000
AcRTDxfName
1000
SCALE
1000
AcRTDxfName
1000
SCALE
1000
AcRTDxfName
1000
SCALE
1000
AcRTDxfName
1000
SCALE
1000
AcRTDxfName
1000
SCALE
1000
AcRTDxfName
1000
SCALE
1000
AcRTDxfName
1000
SCALE
1000
AcRTDxfName
1000
SCALE
1000
AcRTDxfName
1000
SCALE
1000
AcRTDxfName
1000
SCALE
1000
AcRTDxfName
1000
SCALE
1000
AcRTDxfName
1000
SCALE
1000
AcRTDxfName
1000
SCALE
1000
AcRTDxfName
1000
SCALE
1000
AcRTDxfName
1000
SCALE
1000
AcRTDxfName
1000
SCALE
1000
AcRTDxfName
1000
SCALE
1000
AcRTDxfName
1000
SCALE
1000
AcRTDxfName
1000
SCALE
1000
AcRTDxfName
1000
SCALE
1000
AcRTDxfName
1000
SCALE
1000
AcRTDxfName
1000
SCALE
  0
SCALE
  5
203
102
{ACAD_REACTORS
330
B6
102
}
330
B6
100
AcDbScale
 70
     0
300
1:2_1
140
1.0
141
2.0
290
     0
1001
ACAD
1000
AcRTDxfName
1000
SCALE
1000
AcRTDxfName
1000
SCALE
1000
AcRTDxfName
1000
SCALE
1000
AcRTDxfName
1000
SCALE
1000
AcRTDxfName
1000
SCALE
1000
AcRTDxfName
1000
SCALE
1000
AcRTDxfName
1000
SCALE
1000
AcRTDxfName
1000
SCALE
1000
AcRTDxfName
1000
SCALE
1000
AcRTDxfName
1000
SCALE
1000
AcRTDxfName
1000
SCALE
1000
AcRTDxfName
1000
SCALE
1000
AcRTDxfName
1000
SCALE
1000
AcRTDxfName
1000
SCALE
1000
AcRTDxfName
1000
SCALE
1000
AcRTDxfName
1000
SCALE
1000
AcRTDxfName
1000
SCALE
1000
AcRTDxfName
1000
SCALE
1000
AcRTDxfName
1000
SCALE
1000
AcRTDxfName
1000
SCALE
1000
AcRTDxfName
1000
SCALE
1000
AcRTDxfName
1000
SCALE
1000
AcRTDxfName
1000
SCALE
1000
AcRTDxfName
1000
SCALE
1000
AcRTDxfName
1000
SCALE
1000
AcRTDxfName
1000
SCALE
1000
AcRTDxfName
1000
SCALE
1000
AcRTDxfName
1000
SCALE
1000
AcRTDxfName
1000
SCALE
1000
AcRTDxfName
1000
SCALE
1000
AcRTDxfName
1000
SCALE
1000
AcRTDxfName
1000
SCALE
  0
SCALE
  5
204
102
{ACAD_REACTORS
330
B6
102
}
330
B6
100
AcDbScale
 70
     0
300
1:1_2
140
1.0
141
1.0
290
     0
1001
ACAD
1000
AcRTDxfName
1000
SCALE
1000
AcRTDxfName
1000
SCALE
1000
AcRTDxfName
1000
SCALE
1000
AcRTDxfName
1000
SCALE
1000
AcRTDxfName
1000
SCALE
1000
AcRTDxfName
1000
SCALE
1000
AcRTDxfName
1000
SCALE
1000
AcRTDxfName
1000
SCALE
1000
AcRTDxfName
1000
SCALE
1000
AcRTDxfName
1000
SCALE
1000
AcRTDxfName
1000
SCALE
1000
AcRTDxfName
1000
SCALE
1000
AcRTDxfName
1000
SCALE
1000
AcRTDxfName
1000
SCALE
1000
AcRTDxfName
1000
SCALE
1000
AcRTDxfName
1000
SCALE
1000
AcRTDxfName
1000
SCALE
1000
AcRTDxfName
1000
SCALE
1000
AcRTDxfName
1000
SCALE
1000
AcRTDxfName
1000
SCALE
1000
AcRTDxfName
1000
SCALE
1000
AcRTDxfName
1000
SCALE
1000
AcRTDxfName
1000
SCALE
1000
AcRTDxfName
1000
SCALE
1000
AcRTDxfName
1000
SCALE
1000
AcRTDxfName
1000
SCALE
1000
AcRTDxfName
1000
SCALE
1000
AcRTDxfName
1000
SCALE
1000
AcRTDxfName
1000
SCALE
1000
AcRTDxfName
1000
SCALE
1000
AcRTDxfName
1000
SCALE
1000
AcRTDxfName
1000
SCALE
  0
SCALE
  5
1BB
102
{ACAD_REACTORS
330
B6
102
}
330
B6
100
AcDbScale
 70
     0
300
1:1_4
140
1.0
141
1.0
290
     0
  0
SCALE
  5
163
102
{ACAD_REACTORS
330
B6
102
}
330
B6
100
AcDbScale
 70
     0
300
1:5_4_6
140
1.0
141
5.0
290
     0
  0
SCALE
  5
205
102
{ACAD_REACTORS
330
B6
102
}
330
B6
100
AcDbScale
 70
     0
300
1:2_2
140
1.0
141
2.0
290
     0
1001
ACAD
1000
AcRTDxfName
1000
SCALE
1000
AcRTDxfName
1000
SCALE
1000
AcRTDxfName
1000
SCALE
1000
AcRTDxfName
1000
SCALE
1000
AcRTDxfName
1000
SCALE
1000
AcRTDxfName
1000
SCALE
1000
AcRTDxfName
1000
SCALE
1000
AcRTDxfName
1000
SCALE
1000
AcRTDxfName
1000
SCALE
1000
AcRTDxfName
1000
SCALE
1000
AcRTDxfName
1000
SCALE
1000
AcRTDxfName
1000
SCALE
1000
AcRTDxfName
1000
SCALE
1000
AcRTDxfName
1000
SCALE
1000
AcRTDxfName
1000
SCALE
1000
AcRTDxfName
1000
SCALE
1000
AcRTDxfName
1000
SCALE
1000
AcRTDxfName
1000
SCALE
1000
AcRTDxfName
1000
SCALE
1000
AcRTDxfName
1000
SCALE
1000
AcRTDxfName
1000
SCALE
1000
AcRTDxfName
1000
SCALE
1000
AcRTDxfName
1000
SCALE
1000
AcRTDxfName
1000
SCALE
1000
AcRTDxfName
1000
SCALE
1000
AcRTDxfName
1000
SCALE
1000
AcRTDxfName
1000
SCALE
1000
AcRTDxfName
1000
SCALE
1000
AcRTDxfName
1000
SCALE
1000
AcRTDxfName
1000
SCALE
1000
AcRTDxfName
1000
SCALE
1000
AcRTDxfName
1000
SCALE
  0
SCALE
  5
206
102
{ACAD_REACTORS
330
B6
102
}
330
B6
100
AcDbScale
 70
     0
300
1:50_1
140
1.0
141
50.0
290
     0
1001
ACAD
1000
AcRTDxfName
1000
SCALE
1000
AcRTDxfName
1000
SCALE
1000
AcRTDxfName
1000
SCALE
1000
AcRTDxfName
1000
SCALE
1000
AcRTDxfName
1000
SCALE
1000
AcRTDxfName
1000
SCALE
1000
AcRTDxfName
1000
SCALE
1000
AcRTDxfName
1000
SCALE
1000
AcRTDxfName
1000
SCALE
1000
AcRTDxfName
1000
SCALE
1000
AcRTDxfName
1000
SCALE
1000
AcRTDxfName
1000
SCALE
1000
AcRTDxfName
1000
SCALE
1000
AcRTDxfName
1000
SCALE
1000
AcRTDxfName
1000
SCALE
1000
AcRTDxfName
1000
SCALE
1000
AcRTDxfName
1000
SCALE
1000
AcRTDxfName
1000
SCALE
1000
AcRTDxfName
1000
SCALE
1000
AcRTDxfName
1000
SCALE
1000
AcRTDxfName
1000
SCALE
1000
AcRTDxfName
1000
SCALE
1000
AcRTDxfName
1000
SCALE
1000
AcRTDxfName
1000
SCALE
1000
AcRTDxfName
1000
SCALE
1000
AcRTDxfName
1000
SCALE
1000
AcRTDxfName
1000
SCALE
1000
AcRTDxfName
1000
SCALE
1000
AcRTDxfName
1000
SCALE
1000
AcRTDxfName
1000
SCALE
1000
AcRTDxfName
1000
SCALE
1000
AcRTDxfName
1000
SCALE
  0
SCALE
  5
207
102
{ACAD_REACTORS
330
B6
102
}
330
B6
100
AcDbScale
 70
     0
300
1:5_2
140
1.0
141
5.0
290
     0
1001
ACAD
1000
AcRTDxfName
1000
SCALE
1000
AcRTDxfName
1000
SCALE
1000
AcRTDxfName
1000
SCALE
1000
AcRTDxfName
1000
SCALE
1000
AcRTDxfName
1000
SCALE
1000
AcRTDxfName
1000
SCALE
1000
AcRTDxfName
1000
SCALE
1000
AcRTDxfName
1000
SCALE
1000
AcRTDxfName
1000
SCALE
1000
AcRTDxfName
1000
SCALE
1000
AcRTDxfName
1000
SCALE
1000
AcRTDxfName
1000
SCALE
1000
AcRTDxfName
1000
SCALE
1000
AcRTDxfName
1000
SCALE
1000
AcRTDxfName
1000
SCALE
1000
AcRTDxfName
1000
SCALE
1000
AcRTDxfName
1000
SCALE
1000
AcRTDxfName
1000
SCALE
1000
AcRTDxfName
1000
SCALE
1000
AcRTDxfName
1000
SCALE
1000
AcRTDxfName
1000
SCALE
1000
AcRTDxfName
1000
SCALE
1000
AcRTDxfName
1000
SCALE
1000
AcRTDxfName
1000
SCALE
1000
AcRTDxfName
1000
SCALE
1000
AcRTDxfName
1000
SCALE
1000
AcRTDxfName
1000
SCALE
1000
AcRTDxfName
1000
SCALE
1000
AcRTDxfName
1000
SCALE
1000
AcRTDxfName
1000
SCALE
1000
AcRTDxfName
1000
SCALE
1000
AcRTDxfName
1000
SCALE
  0
SCALE
  5
208
102
{ACAD_REACTORS
330
B6
102
}
330
B6
100
AcDbScale
 70
     0
300
1:1_3
140
1.0
141
0.001
290
     0
1001
ACAD
1000
AcRTDxfName
1000
SCALE
1000
AcRTDxfName
1000
SCALE
1000
AcRTDxfName
1000
SCALE
1000
AcRTDxfName
1000
SCALE
1000
AcRTDxfName
1000
SCALE
1000
AcRTDxfName
1000
SCALE
1000
AcRTDxfName
1000
SCALE
1000
AcRTDxfName
1000
SCALE
1000
AcRTDxfName
1000
SCALE
1000
AcRTDxfName
1000
SCALE
1000
AcRTDxfName
1000
SCALE
1000
AcRTDxfName
1000
SCALE
1000
AcRTDxfName
1000
SCALE
1000
AcRTDxfName
1000
SCALE
1000
AcRTDxfName
1000
SCALE
1000
AcRTDxfName
1000
SCALE
1000
AcRTDxfName
1000
SCALE
1000
AcRTDxfName
1000
SCALE
1000
AcRTDxfName
1000
SCALE
1000
AcRTDxfName
1000
SCALE
1000
AcRTDxfName
1000
SCALE
1000
AcRTDxfName
1000
SCALE
1000
AcRTDxfName
1000
SCALE
1000
AcRTDxfName
1000
SCALE
1000
AcRTDxfName
1000
SCALE
1000
AcRTDxfName
1000
SCALE
1000
AcRTDxfName
1000
SCALE
1000
AcRTDxfName
1000
SCALE
1000
AcRTDxfName
1000
SCALE
1000
AcRTDxfName
1000
SCALE
1000
AcRTDxfName
1000
SCALE
1000
AcRTDxfName
1000
SCALE
  0
SCALE
  5
1AE
102
{ACAD_REACTORS
330
B6
102
}
330
B6
100
AcDbScale
 70
     0
300
1:1_12_2
140
1.0
141
0.001
290
     0
  0
SCALE
  5
209
102
{ACAD_REACTORS
330
B6
102
}
330
B6
100
AcDbScale
 70
     0
300
1:2_3
140
1.0
141
0.002
290
     0
1001
ACAD
1000
AcRTDxfName
1000
SCALE
1000
AcRTDxfName
1000
SCALE
1000
AcRTDxfName
1000
SCALE
1000
AcRTDxfName
1000
SCALE
1000
AcRTDxfName
1000
SCALE
1000
AcRTDxfName
1000
SCALE
1000
AcRTDxfName
1000
SCALE
1000
AcRTDxfName
1000
SCALE
1000
AcRTDxfName
1000
SCALE
1000
AcRTDxfName
1000
SCALE
1000
AcRTDxfName
1000
SCALE
1000
AcRTDxfName
1000
SCALE
1000
AcRTDxfName
1000
SCALE
1000
AcRTDxfName
1000
SCALE
1000
AcRTDxfName
1000
SCALE
1000
AcRTDxfName
1000
SCALE
1000
AcRTDxfName
1000
SCALE
1000
AcRTDxfName
1000
SCALE
1000
AcRTDxfName
1000
SCALE
1000
AcRTDxfName
1000
SCALE
1000
AcRTDxfName
1000
SCALE
1000
AcRTDxfName
1000
SCALE
1000
AcRTDxfName
1000
SCALE
1000
AcRTDxfName
1000
SCALE
1000
AcRTDxfName
1000
SCALE
1000
AcRTDxfName
1000
SCALE
1000
AcRTDxfName
1000
SCALE
1000
AcRTDxfName
1000
SCALE
1000
AcRTDxfName
1000
SCALE
1000
AcRTDxfName
1000
SCALE
1000
AcRTDxfName
1000
SCALE
1000
AcRTDxfName
1000
SCALE
  0
SCALE
  5
20A
102
{ACAD_REACTORS
330
B6
102
}
330
B6
100
AcDbScale
 70
     0
300
1:2.5
140
1.0
141
0.0025
290
     0
1001
ACAD
1000
AcRTDxfName
1000
SCALE
1000
AcRTDxfName
1000
SCALE
1000
AcRTDxfName
1000
SCALE
1000
AcRTDxfName
1000
SCALE
1000
AcRTDxfName
1000
SCALE
1000
AcRTDxfName
1000
SCALE
1000
AcRTDxfName
1000
SCALE
1000
AcRTDxfName
1000
SCALE
1000
AcRTDxfName
1000
SCALE
1000
AcRTDxfName
1000
SCALE
1000
AcRTDxfName
1000
SCALE
1000
AcRTDxfName
1000
SCALE
1000
AcRTDxfName
1000
SCALE
1000
AcRTDxfName
1000
SCALE
1000
AcRTDxfName
1000
SCALE
1000
AcRTDxfName
1000
SCALE
1000
AcRTDxfName
1000
SCALE
1000
AcRTDxfName
1000
SCALE
1000
AcRTDxfName
1000
SCALE
1000
AcRTDxfName
1000
SCALE
1000
AcRTDxfName
1000
SCALE
1000
AcRTDxfName
1000
SCALE
1000
AcRTDxfName
1000
SCALE
1000
AcRTDxfName
1000
SCALE
1000
AcRTDxfName
1000
SCALE
1000
AcRTDxfName
1000
SCALE
1000
AcRTDxfName
1000
SCALE
1000
AcRTDxfName
1000
SCALE
1000
AcRTDxfName
1000
SCALE
1000
AcRTDxfName
1000
SCALE
1000
AcRTDxfName
1000
SCALE
1000
AcRTDxfName
1000
SCALE
  0
SCALE
  5
1BC
102
{ACAD_REACTORS
330
B6
102
}
330
B6
100
AcDbScale
 70
     0
300
1:1_7
140
1.0
141
1.0
290
     0
  0
SCALE
  5
21B
102
{ACAD_REACTORS
330
B6
102
}
330
B6
100
AcDbScale
 70
     0
300
1:5000
140
1.0
141
5.0
290
     0
1001
ACAD
1000
AcRTDxfName
1000
SCALE
1000
AcRTDxfName
1000
SCALE
1000
AcRTDxfName
1000
SCALE
1000
AcRTDxfName
1000
SCALE
1000
AcRTDxfName
1000
SCALE
1000
AcRTDxfName
1000
SCALE
1000
AcRTDxfName
1000
SCALE
1000
AcRTDxfName
1000
SCALE
1000
AcRTDxfName
1000
SCALE
1000
AcRTDxfName
1000
SCALE
1000
AcRTDxfName
1000
SCALE
1000
AcRTDxfName
1000
SCALE
1000
AcRTDxfName
1000
SCALE
1000
AcRTDxfName
1000
SCALE
1000
AcRTDxfName
1000
SCALE
1000
AcRTDxfName
1000
SCALE
1000
AcRTDxfName
1000
SCALE
1000
AcRTDxfName
1000
SCALE
1000
AcRTDxfName
1000
SCALE
1000
AcRTDxfName
1000
SCALE
1000
AcRTDxfName
1000
SCALE
1000
AcRTDxfName
1000
SCALE
1000
AcRTDxfName
1000
SCALE
1000
AcRTDxfName
1000
SCALE
1000
AcRTDxfName
1000
SCALE
1000
AcRTDxfName
1000
SCALE
1000
AcRTDxfName
1000
SCALE
1000
AcRTDxfName
1000
SCALE
1000
AcRTDxfName
1000
SCALE
1000
AcRTDxfName
1000
SCALE
1000
AcRTDxfName
1000
SCALE
1000
AcRTDxfName
1000
SCALE
  0
SCALE
  5
20B
102
{ACAD_REACTORS
330
B6
102
}
330
B6
100
AcDbScale
 70
     0
300
1:5_3
140
1.0
141
0.005
290
     0
1001
ACAD
1000
AcRTDxfName
1000
SCALE
1000
AcRTDxfName
1000
SCALE
1000
AcRTDxfName
1000
SCALE
1000
AcRTDxfName
1000
SCALE
1000
AcRTDxfName
1000
SCALE
1000
AcRTDxfName
1000
SCALE
1000
AcRTDxfName
1000
SCALE
1000
AcRTDxfName
1000
SCALE
1000
AcRTDxfName
1000
SCALE
1000
AcRTDxfName
1000
SCALE
1000
AcRTDxfName
1000
SCALE
1000
AcRTDxfName
1000
SCALE
1000
AcRTDxfName
1000
SCALE
1000
AcRTDxfName
1000
SCALE
1000
AcRTDxfName
1000
SCALE
1000
AcRTDxfName
1000
SCALE
1000
AcRTDxfName
1000
SCALE
1000
AcRTDxfName
1000
SCALE
1000
AcRTDxfName
1000
SCALE
1000
AcRTDxfName
1000
SCALE
1000
AcRTDxfName
1000
SCALE
1000
AcRTDxfName
1000
SCALE
1000
AcRTDxfName
1000
SCALE
1000
AcRTDxfName
1000
SCALE
1000
AcRTDxfName
1000
SCALE
1000
AcRTDxfName
1000
SCALE
1000
AcRTDxfName
1000
SCALE
1000
AcRTDxfName
1000
SCALE
1000
AcRTDxfName
1000
SCALE
1000
AcRTDxfName
1000
SCALE
1000
AcRTDxfName
1000
SCALE
1000
AcRTDxfName
1000
SCALE
  0
SCALE
  5
20C
102
{ACAD_REACTORS
330
B6
102
}
330
B6
100
AcDbScale
 70
     0
300
1:7.5
140
1.0
141
0.0075
290
     0
1001
ACAD
1000
AcRTDxfName
1000
SCALE
1000
AcRTDxfName
1000
SCALE
1000
AcRTDxfName
1000
SCALE
1000
AcRTDxfName
1000
SCALE
1000
AcRTDxfName
1000
SCALE
1000
AcRTDxfName
1000
SCALE
1000
AcRTDxfName
1000
SCALE
1000
AcRTDxfName
1000
SCALE
1000
AcRTDxfName
1000
SCALE
1000
AcRTDxfName
1000
SCALE
1000
AcRTDxfName
1000
SCALE
1000
AcRTDxfName
1000
SCALE
1000
AcRTDxfName
1000
SCALE
1000
AcRTDxfName
1000
SCALE
1000
AcRTDxfName
1000
SCALE
1000
AcRTDxfName
1000
SCALE
1000
AcRTDxfName
1000
SCALE
1000
AcRTDxfName
1000
SCALE
1000
AcRTDxfName
1000
SCALE
1000
AcRTDxfName
1000
SCALE
1000
AcRTDxfName
1000
SCALE
1000
AcRTDxfName
1000
SCALE
1000
AcRTDxfName
1000
SCALE
1000
AcRTDxfName
1000
SCALE
1000
AcRTDxfName
1000
SCALE
1000
AcRTDxfName
1000
SCALE
1000
AcRTDxfName
1000
SCALE
1000
AcRTDxfName
1000
SCALE
1000
AcRTDxfName
1000
SCALE
1000
AcRTDxfName
1000
SCALE
1000
AcRTDxfName
1000
SCALE
1000
AcRTDxfName
1000
SCALE
  0
SCALE
  5
20D
102
{ACAD_REACTORS
330
B6
102
}
330
B6
100
AcDbScale
 70
     0
300
1:10_3
140
1.0
141
0.01
290
     0
1001
ACAD
1000
AcRTDxfName
1000
SCALE
1000
AcRTDxfName
1000
SCALE
1000
AcRTDxfName
1000
SCALE
1000
AcRTDxfName
1000
SCALE
1000
AcRTDxfName
1000
SCALE
1000
AcRTDxfName
1000
SCALE
1000
AcRTDxfName
1000
SCALE
1000
AcRTDxfName
1000
SCALE
1000
AcRTDxfName
1000
SCALE
1000
AcRTDxfName
1000
SCALE
1000
AcRTDxfName
1000
SCALE
1000
AcRTDxfName
1000
SCALE
1000
AcRTDxfName
1000
SCALE
1000
AcRTDxfName
1000
SCALE
1000
AcRTDxfName
1000
SCALE
1000
AcRTDxfName
1000
SCALE
1000
AcRTDxfName
1000
SCALE
1000
AcRTDxfName
1000
SCALE
1000
AcRTDxfName
1000
SCALE
1000
AcRTDxfName
1000
SCALE
1000
AcRTDxfName
1000
SCALE
1000
AcRTDxfName
1000
SCALE
1000
AcRTDxfName
1000
SCALE
1000
AcRTDxfName
1000
SCALE
1000
AcRTDxfName
1000
SCALE
1000
AcRTDxfName
1000
SCALE
1000
AcRTDxfName
1000
SCALE
1000
AcRTDxfName
1000
SCALE
1000
AcRTDxfName
1000
SCALE
1000
AcRTDxfName
1000
SCALE
1000
AcRTDxfName
1000
SCALE
1000
AcRTDxfName
1000
SCALE
  0
SCALE
  5
166
102
{ACAD_REACTORS
330
B6
102
}
330
B6
100
AcDbScale
 70
     0
300
1:10_4_4
140
1.0
141
10.0
290
     0
  0
SCALE
  5
167
102
{ACAD_REACTORS
330
B6
102
}
330
B6
100
AcDbScale
 70
     0
300
1:1_11
140
1.0
141
1.0
290
     0
  0
SCALE
  5
168
102
{ACAD_REACTORS
330
B6
102
}
330
B6
100
AcDbScale
 70
     0
300
1:50_6
140
1.0
141
50.0
290
     0
  0
SCALE
  5
1AF
102
{ACAD_REACTORS
330
B6
102
}
330
B6
100
AcDbScale
 70
     0
300
1:1_12_1_1
140
1.0
141
1.0
290
     0
  0
SCALE
  5
1BE
102
{ACAD_REACTORS
330
B6
102
}
330
B6
100
AcDbScale
 70
     0
300
1:2_6
140
1.0
141
2.0
290
     0
  0
SCALE
  5
169
102
{ACAD_REACTORS
330
B6
102
}
330
B6
100
AcDbScale
 70
     0
300
1:5_8
140
1.0
141
0.005
290
     0
  0
SCALE
  5
16A
102
{ACAD_REACTORS
330
B6
102
}
330
B6
100
AcDbScale
 70
     0
300
1:20_10
140
1.0
141
0.02
290
     0
  0
SCALE
  5
16B
102
{ACAD_REACTORS
330
B6
102
}
330
B6
100
AcDbScale
 70
     0
300
1:10_3_2
140
1.0
141
10.0
290
     0
  0
SCALE
  5
16C
102
{ACAD_REACTORS
330
B6
102
}
330
B6
100
AcDbScale
 70
     0
300
1:5_4_1_1_1
140
1.0
141
5.0
290
     0
  0
SCALE
  5
16D
102
{ACAD_REACTORS
330
B6
102
}
330
B6
100
AcDbScale
 70
     0
300
1:2_4_6
140
1.0
141
2.0
290
     0
  0
SCALE
  5
20E
102
{ACAD_REACTORS
330
B6
102
}
330
B6
100
AcDbScale
 70
     0
300
1:20_3
140
1.0
141
0.02
290
     0
1001
ACAD
1000
AcRTDxfName
1000
SCALE
1000
AcRTDxfName
1000
SCALE
1000
AcRTDxfName
1000
SCALE
1000
AcRTDxfName
1000
SCALE
1000
AcRTDxfName
1000
SCALE
1000
AcRTDxfName
1000
SCALE
1000
AcRTDxfName
1000
SCALE
1000
AcRTDxfName
1000
SCALE
1000
AcRTDxfName
1000
SCALE
1000
AcRTDxfName
1000
SCALE
1000
AcRTDxfName
1000
SCALE
1000
AcRTDxfName
1000
SCALE
1000
AcRTDxfName
1000
SCALE
1000
AcRTDxfName
1000
SCALE
1000
AcRTDxfName
1000
SCALE
1000
AcRTDxfName
1000
SCALE
1000
AcRTDxfName
1000
SCALE
1000
AcRTDxfName
1000
SCALE
1000
AcRTDxfName
1000
SCALE
1000
AcRTDxfName
1000
SCALE
1000
AcRTDxfName
1000
SCALE
1000
AcRTDxfName
1000
SCALE
1000
AcRTDxfName
1000
SCALE
1000
AcRTDxfName
1000
SCALE
1000
AcRTDxfName
1000
SCALE
1000
AcRTDxfName
1000
SCALE
1000
AcRTDxfName
1000
SCALE
1000
AcRTDxfName
1000
SCALE
1000
AcRTDxfName
1000
SCALE
1000
AcRTDxfName
1000
SCALE
1000
AcRTDxfName
1000
SCALE
1000
AcRTDxfName
1000
SCALE
  0
SCALE
  5
16E
102
{ACAD_REACTORS
330
B6
102
}
330
B6
100
AcDbScale
 70
     0
300
1:2_3_2
140
1.0
141
2.0
290
     0
  0
SCALE
  5
154
102
{ACAD_REACTORS
330
B6
102
}
330
B6
100
AcDbScale
 70
     0
300
1:100_3_2
140
1.0
141
100.0
290
     0
  0
SCALE
  5
16F
102
{ACAD_REACTORS
330
B6
102
}
330
B6
100
AcDbScale
 70
     0
300
1:50_4
140
1.0
141
0.05
290
     0
  0
SCALE
  5
215
102
{ACAD_REACTORS
330
B6
102
}
330
B6
100
AcDbScale
 70
     0
300
1:250
140
1.0
141
0.25
290
     0
1001
ACAD
1000
AcRTDxfName
1000
SCALE
1000
AcRTDxfName
1000
SCALE
1000
AcRTDxfName
1000
SCALE
1000
AcRTDxfName
1000
SCALE
1000
AcRTDxfName
1000
SCALE
1000
AcRTDxfName
1000
SCALE
1000
AcRTDxfName
1000
SCALE
1000
AcRTDxfName
1000
SCALE
1000
AcRTDxfName
1000
SCALE
1000
AcRTDxfName
1000
SCALE
1000
AcRTDxfName
1000
SCALE
1000
AcRTDxfName
1000
SCALE
1000
AcRTDxfName
1000
SCALE
1000
AcRTDxfName
1000
SCALE
1000
AcRTDxfName
1000
SCALE
1000
AcRTDxfName
1000
SCALE
1000
AcRTDxfName
1000
SCALE
1000
AcRTDxfName
1000
SCALE
1000
AcRTDxfName
1000
SCALE
1000
AcRTDxfName
1000
SCALE
1000
AcRTDxfName
1000
SCALE
1000
AcRTDxfName
1000
SCALE
1000
AcRTDxfName
1000
SCALE
1000
AcRTDxfName
1000
SCALE
1000
AcRTDxfName
1000
SCALE
1000
AcRTDxfName
1000
SCALE
1000
AcRTDxfName
1000
SCALE
1000
AcRTDxfName
1000
SCALE
1000
AcRTDxfName
1000
SCALE
1000
AcRTDxfName
1000
SCALE
1000
AcRTDxfName
1000
SCALE
1000
AcRTDxfName
1000
SCALE
  0
SCALE
  5
170
102
{ACAD_REACTORS
330
B6
102
}
330
B6
100
AcDbScale
 70
     0
300
1:20_4_2
140
1.0
141
20.0
290
     0
  0
SCALE
  5
171
102
{ACAD_REACTORS
330
B6
102
}
330
B6
100
AcDbScale
 70
     0
300
1:100_7
140
1.0
141
100.0
290
     0
  0
SCALE
  5
15C
102
{ACAD_REACTORS
330
B6
102
}
330
B6
100
AcDbScale
 70
     0
300
1:50_4_5
140
1.0
141
50.0
290
     0
  0
SCALE
  5
172
102
{ACAD_REACTORS
330
B6
102
}
330
B6
100
AcDbScale
 70
     0
300
1:50_5
140
1.0
141
50.0
290
     0
  0
SCALE
  5
173
102
{ACAD_REACTORS
330
B6
102
}
330
B6
100
AcDbScale
 70
     0
300
1:1_4_7
140
1.0
141
1.0
290
     0
  0
SCALE
  5
174
102
{ACAD_REACTORS
330
B6
102
}
330
B6
100
AcDbScale
 70
     0
300
1:50_9
140
1.0
141
0.05
290
     0
  0
SCALE
  5
175
102
{ACAD_REACTORS
330
B6
102
}
330
B6
100
AcDbScale
 70
     0
300
1:20_4_4
140
1.0
141
20.0
290
     0
  0
SCALE
  5
164
102
{ACAD_REACTORS
330
B6
102
}
330
B6
100
AcDbScale
 70
     0
300
1:10_3_1
140
1.0
141
0.01
290
     0
  0
SCALE
  5
176
102
{ACAD_REACTORS
330
B6
102
}
330
B6
100
AcDbScale
 70
     0
300
1:5_6
140
1.0
141
5.0
290
     0
  0
SCALE
  5
177
102
{ACAD_REACTORS
330
B6
102
}
330
B6
100
AcDbScale
 70
     0
300
1:20_4_5
140
1.0
141
20.0
290
     0
  0
SCALE
  5
1B0
102
{ACAD_REACTORS
330
B6
102
}
330
B6
100
AcDbScale
 70
     0
300
1:1_12_1_1_1
140
1.0
141
0.001
290
     0
  0
SCALE
  5
178
102
{ACAD_REACTORS
330
B6
102
}
330
B6
100
AcDbScale
 70
     0
300
1:10_13
140
1.0
141
0.01
290
     0
  0
SCALE
  5
155
102
{ACAD_REACTORS
330
B6
102
}
330
B6
100
AcDbScale
 70
     0
300
1:20_9
140
1.0
141
0.02
290
     0
  0
SCALE
  5
179
102
{ACAD_REACTORS
330
B6
102
}
330
B6
100
AcDbScale
 70
     0
300
1:50_8
140
1.0
141
0.05
290
     0
  0
SCALE
  5
17A
102
{ACAD_REACTORS
330
B6
102
}
330
B6
100
AcDbScale
 70
     0
300
1:1_5_XREF
140
1.0
141
1.0
290
     0
1001
ACAD
1000
AcRTDxfName
1000
SCALE
1000
AcRTDxfName
1000
SCALE
1000
AcRTDxfName
1000
SCALE
1000
AcRTDxfName
1000
SCALE
1000
AcRTDxfName
1000
SCALE
1000
AcRTDxfName
1000
SCALE
  0
SCALE
  5
1BF
102
{ACAD_REACTORS
330
B6
102
}
330
B6
100
AcDbScale
 70
     0
300
1:1_8
140
1.0
141
1.0
290
     0
  0
SCALE
  5
17B
102
{ACAD_REACTORS
330
B6
102
}
330
B6
100
AcDbScale
 70
     0
300
1:100_10
140
1.0
141
0.1
290
     0
  0
SCALE
  5
17C
102
{ACAD_REACTORS
330
B6
102
}
330
B6
100
AcDbScale
 70
     0
300
1:5_5
140
1.0
141
5.0
290
     0
  0
SCALE
  5
17D
102
{ACAD_REACTORS
330
B6
102
}
330
B6
100
AcDbScale
 70
     0
300
1:1_4_1_1
140
1.0
141
1.0
290
     0
  0
SCALE
  5
20F
102
{ACAD_REACTORS
330
B6
102
}
330
B6
100
AcDbScale
 70
     0
300
1:25
140
1.0
141
0.025
290
     0
1001
ACAD
1000
AcRTDxfName
1000
SCALE
1000
AcRTDxfName
1000
SCALE
1000
AcRTDxfName
1000
SCALE
1000
AcRTDxfName
1000
SCALE
1000
AcRTDxfName
1000
SCALE
1000
AcRTDxfName
1000
SCALE
1000
AcRTDxfName
1000
SCALE
1000
AcRTDxfName
1000
SCALE
1000
AcRTDxfName
1000
SCALE
1000
AcRTDxfName
1000
SCALE
1000
AcRTDxfName
1000
SCALE
1000
AcRTDxfName
1000
SCALE
1000
AcRTDxfName
1000
SCALE
1000
AcRTDxfName
1000
SCALE
1000
AcRTDxfName
1000
SCALE
1000
AcRTDxfName
1000
SCALE
1000
AcRTDxfName
1000
SCALE
1000
AcRTDxfName
1000
SCALE
1000
AcRTDxfName
1000
SCALE
1000
AcRTDxfName
1000
SCALE
1000
AcRTDxfName
1000
SCALE
1000
AcRTDxfName
1000
SCALE
1000
AcRTDxfName
1000
SCALE
1000
AcRTDxfName
1000
SCALE
1000
AcRTDxfName
1000
SCALE
1000
AcRTDxfName
1000
SCALE
1000
AcRTDxfName
1000
SCALE
1000
AcRTDxfName
1000
SCALE
1000
AcRTDxfName
1000
SCALE
1000
AcRTDxfName
1000
SCALE
1000
AcRTDxfName
1000
SCALE
1000
AcRTDxfName
1000
SCALE
  0
SCALE
  5
17E
102
{ACAD_REACTORS
330
B6
102
}
330
B6
100
AcDbScale
 70
     0
300
1:100_8
140
1.0
141
0.1
290
     0
  0
SCALE
  5
1B1
102
{ACAD_REACTORS
330
B6
102
}
330
B6
100
AcDbScale
 70
     0
300
1:1_12_3
140
1.0
141
0.001
290
     0
  0
SCALE
  5
17F
102
{ACAD_REACTORS
330
B6
102
}
330
B6
100
AcDbScale
 70
     0
300
1:50_4_4
140
1.0
141
50.0
290
     0
  0
SCALE
  5
180
102
{ACAD_REACTORS
330
B6
102
}
330
B6
100
AcDbScale
 70
     0
300
1:5_4
140
1.0
141
0.005
290
     0
  0
SCALE
  5
181
102
{ACAD_REACTORS
330
B6
102
}
330
B6
100
AcDbScale
 70
     0
300
1:50_4_3
140
1.0
141
50.0
290
     0
  0
SCALE
  5
182
102
{ACAD_REACTORS
330
B6
102
}
330
B6
100
AcDbScale
 70
     0
300
1:2_12
140
1.0
141
2.0
290
     0
  0
SCALE
  5
156
102
{ACAD_REACTORS
330
B6
102
}
330
B6
100
AcDbScale
 70
     0
300
1:20_8
140
1.0
141
0.02
290
     0
  0
SCALE
  5
183
102
{ACAD_REACTORS
330
B6
102
}
330
B6
100
AcDbScale
 70
     0
300
1:100_4_6
140
1.0
141
100.0
290
     0
  0
SCALE
  5
1C0
102
{ACAD_REACTORS
330
B6
102
}
330
B6
100
AcDbScale
 70
     0
300
1:1_12
140
1.0
141
1.0
290
     0
  0
SCALE
  5
184
102
{ACAD_REACTORS
330
B6
102
}
330
B6
100
AcDbScale
 70
     0
300
1:10_11
140
1.0
141
10.0
290
     0
  0
SCALE
  5
185
102
{ACAD_REACTORS
330
B6
102
}
330
B6
100
AcDbScale
 70
     0
300
1:20_7
140
1.0
141
20.0
290
     0
  0
SCALE
  5
210
102
{ACAD_REACTORS
330
B6
102
}
330
B6
100
AcDbScale
 70
     0
300
1:50_3
140
1.0
141
0.05
290
     0
1001
ACAD
1000
AcRTDxfName
1000
SCALE
1000
AcRTDxfName
1000
SCALE
1000
AcRTDxfName
1000
SCALE
1000
AcRTDxfName
1000
SCALE
1000
AcRTDxfName
1000
SCALE
1000
AcRTDxfName
1000
SCALE
1000
AcRTDxfName
1000
SCALE
1000
AcRTDxfName
1000
SCALE
1000
AcRTDxfName
1000
SCALE
1000
AcRTDxfName
1000
SCALE
1000
AcRTDxfName
1000
SCALE
1000
AcRTDxfName
1000
SCALE
1000
AcRTDxfName
1000
SCALE
1000
AcRTDxfName
1000
SCALE
1000
AcRTDxfName
1000
SCALE
1000
AcRTDxfName
1000
SCALE
1000
AcRTDxfName
1000
SCALE
1000
AcRTDxfName
1000
SCALE
1000
AcRTDxfName
1000
SCALE
1000
AcRTDxfName
1000
SCALE
1000
AcRTDxfName
1000
SCALE
1000
AcRTDxfName
1000
SCALE
1000
AcRTDxfName
1000
SCALE
1000
AcRTDxfName
1000
SCALE
1000
AcRTDxfName
1000
SCALE
1000
AcRTDxfName
1000
SCALE
1000
AcRTDxfName
1000
SCALE
1000
AcRTDxfName
1000
SCALE
1000
AcRTDxfName
1000
SCALE
1000
AcRTDxfName
1000
SCALE
1000
AcRTDxfName
1000
SCALE
1000
AcRTDxfName
1000
SCALE
  0
SCALE
  5
15B
102
{ACAD_REACTORS
330
B6
102
}
330
B6
100
AcDbScale
 70
     0
300
1:1_1_1
140
1.0
141
0.001
290
     0
  0
SCALE
  5
186
102
{ACAD_REACTORS
330
B6
102
}
330
B6
100
AcDbScale
 70
     0
300
1:5_4_2
140
1.0
141
5.0
290
     0
  0
SCALE
  5
187
102
{ACAD_REACTORS
330
B6
102
}
330
B6
100
AcDbScale
 70
     0
300
1:10_4_1
140
1.0
141
10.0
290
     0
  0
SCALE
  5
188
102
{ACAD_REACTORS
330
B6
102
}
330
B6
100
AcDbScale
 70
     0
300
1:2_4_2
140
1.0
141
2.0
290
     0
  0
SCALE
  5
189
102
{ACAD_REACTORS
330
B6
102
}
330
B6
100
AcDbScale
 70
     0
300
1:2_4_3
140
1.0
141
2.0
290
     0
  0
SCALE
  5
18A
102
{ACAD_REACTORS
330
B6
102
}
330
B6
100
AcDbScale
 70
     0
300
1:5_4_4
140
1.0
141
5.0
290
     0
  0
SCALE
  5
18B
102
{ACAD_REACTORS
330
B6
102
}
330
B6
100
AcDbScale
 70
     0
300
1:50_3_1
140
1.0
141
50.0
290
     0
  0
SCALE
  5
18C
102
{ACAD_REACTORS
330
B6
102
}
330
B6
100
AcDbScale
 70
     0
300
1:20_4_1
140
1.0
141
20.0
290
     0
  0
SCALE
  5
157
102
{ACAD_REACTORS
330
B6
102
}
330
B6
100
AcDbScale
 70
     0
300
1:1_10_2
140
1.0
141
0.001
290
     0
  0
SCALE
  5
1C1
102
{ACAD_REACTORS
330
B6
102
}
330
B6
100
AcDbScale
 70
     0
300
1:100_5
140
1.0
141
100.0
290
     0
  0
SCALE
  5
18D
102
{ACAD_REACTORS
330
B6
102
}
330
B6
100
AcDbScale
 70
     0
300
1:2_8
140
1.0
141
0.002
290
     0
  0
SCALE
  5
1C5
102
{ACAD_REACTORS
330
B6
102
}
330
B6
100
AcDbScale
 70
     0
300
1:100_12
140
1.0
141
100.0
290
     0
  0
SCALE
  5
211
102
{ACAD_REACTORS
330
B6
102
}
330
B6
100
AcDbScale
 70
     0
300
1:75
140
1.0
141
0.075
290
     0
1001
ACAD
1000
AcRTDxfName
1000
SCALE
1000
AcRTDxfName
1000
SCALE
1000
AcRTDxfName
1000
SCALE
1000
AcRTDxfName
1000
SCALE
1000
AcRTDxfName
1000
SCALE
1000
AcRTDxfName
1000
SCALE
1000
AcRTDxfName
1000
SCALE
1000
AcRTDxfName
1000
SCALE
1000
AcRTDxfName
1000
SCALE
1000
AcRTDxfName
1000
SCALE
1000
AcRTDxfName
1000
SCALE
1000
AcRTDxfName
1000
SCALE
1000
AcRTDxfName
1000
SCALE
1000
AcRTDxfName
1000
SCALE
1000
AcRTDxfName
1000
SCALE
1000
AcRTDxfName
1000
SCALE
1000
AcRTDxfName
1000
SCALE
1000
AcRTDxfName
1000
SCALE
1000
AcRTDxfName
1000
SCALE
1000
AcRTDxfName
1000
SCALE
1000
AcRTDxfName
1000
SCALE
1000
AcRTDxfName
1000
SCALE
1000
AcRTDxfName
1000
SCALE
1000
AcRTDxfName
1000
SCALE
1000
AcRTDxfName
1000
SCALE
1000
AcRTDxfName
1000
SCALE
1000
AcRTDxfName
1000
SCALE
1000
AcRTDxfName
1000
SCALE
1000
AcRTDxfName
1000
SCALE
1000
AcRTDxfName
1000
SCALE
1000
AcRTDxfName
1000
SCALE
1000
AcRTDxfName
1000
SCALE
  0
SCALE
  5
18E
102
{ACAD_REACTORS
330
B6
102
}
330
B6
100
AcDbScale
 70
     0
300
1:1_3_1_1
140
1.0
141
0.001
290
     0
  0
SCALE
  5
18F
102
{ACAD_REACTORS
330
B6
102
}
330
B6
100
AcDbScale
 70
     0
300
1:1_5
140
1.0
141
1.0
290
     0
  0
SCALE
  5
190
102
{ACAD_REACTORS
330
B6
102
}
330
B6
100
AcDbScale
 70
     0
300
1:10_4_1_1
140
1.0
141
0.01
290
     0
  0
SCALE
  5
191
102
{ACAD_REACTORS
330
B6
102
}
330
B6
100
AcDbScale
 70
     0
300
1:2_4_1
140
1.0
141
2.0
290
     0
  0
SCALE
  5
192
102
{ACAD_REACTORS
330
B6
102
}
330
B6
100
AcDbScale
 70
     0
300
1:1_4_3
140
1.0
141
1.0
290
     0
  0
SCALE
  5
193
102
{ACAD_REACTORS
330
B6
102
}
330
B6
100
AcDbScale
 70
     0
300
1:50_4_7
140
1.0
141
50.0
290
     0
  0
SCALE
  5
194
102
{ACAD_REACTORS
330
B6
102
}
330
B6
100
AcDbScale
 70
     0
300
1:1_15_1
140
1.0
141
0.001
290
     0
  0
SCALE
  5
195
102
{ACAD_REACTORS
330
B6
102
}
330
B6
100
AcDbScale
 70
     0
300
1:100_4_1_1
140
1.0
141
100.0
290
     0
  0
SCALE
  5
196
102
{ACAD_REACTORS
330
B6
102
}
330
B6
100
AcDbScale
 70
     0
300
1:50_10
140
1.0
141
0.05
290
     0
  0
SCALE
  5
1B2
102
{ACAD_REACTORS
330
B6
102
}
330
B6
100
AcDbScale
 70
     0
300
1:5_4_3
140
1.0
141
5.0
290
     0
  0
SCALE
  5
1C2
102
{ACAD_REACTORS
330
B6
102
}
330
B6
100
AcDbScale
 70
     0
300
1:5_3_1
140
1.0
141
0.005
290
     0
  0
SCALE
  5
212
102
{ACAD_REACTORS
330
B6
102
}
330
B6
100
AcDbScale
 70
     0
300
1:100_3
140
1.0
141
0.1
290
     0
1001
ACAD
1000
AcRTDxfName
1000
SCALE
1000
AcRTDxfName
1000
SCALE
1000
AcRTDxfName
1000
SCALE
1000
AcRTDxfName
1000
SCALE
1000
AcRTDxfName
1000
SCALE
1000
AcRTDxfName
1000
SCALE
1000
AcRTDxfName
1000
SCALE
1000
AcRTDxfName
1000
SCALE
1000
AcRTDxfName
1000
SCALE
1000
AcRTDxfName
1000
SCALE
1000
AcRTDxfName
1000
SCALE
1000
AcRTDxfName
1000
SCALE
1000
AcRTDxfName
1000
SCALE
1000
AcRTDxfName
1000
SCALE
1000
AcRTDxfName
1000
SCALE
1000
AcRTDxfName
1000
SCALE
1000
AcRTDxfName
1000
SCALE
1000
AcRTDxfName
1000
SCALE
1000
AcRTDxfName
1000
SCALE
1000
AcRTDxfName
1000
SCALE
1000
AcRTDxfName
1000
SCALE
1000
AcRTDxfName
1000
SCALE
1000
AcRTDxfName
1000
SCALE
1000
AcRTDxfName
1000
SCALE
1000
AcRTDxfName
1000
SCALE
1000
AcRTDxfName
1000
SCALE
1000
AcRTDxfName
1000
SCALE
1000
AcRTDxfName
1000
SCALE
1000
AcRTDxfName
1000
SCALE
1000
AcRTDxfName
1000
SCALE
1000
AcRTDxfName
1000
SCALE
1000
AcRTDxfName
1000
SCALE
  0
SCALE
  5
158
102
{ACAD_REACTORS
330
B6
102
}
330
B6
100
AcDbScale
 70
     0
300
1:1_4_4
140
1.0
141
1.0
290
     0
  0
SCALE
  5
197
102
{ACAD_REACTORS
330
B6
102
}
330
B6
100
AcDbScale
 70
     0
300
1:5_9
140
1.0
141
0.005
290
     0
  0
SCALE
  5
198
102
{ACAD_REACTORS
330
B6
102
}
330
B6
100
AcDbScale
 70
     0
300
1:20_3_1_1
140
1.0
141
0.02
290
     0
  0
SCALE
  5
199
102
{ACAD_REACTORS
330
B6
102
}
330
B6
100
AcDbScale
 70
     0
300
1:2_11
140
1.0
141
2.0
290
     0
  0
SCALE
  5
19A
102
{ACAD_REACTORS
330
B6
102
}
330
B6
100
AcDbScale
 70
     0
300
1:1_4_2
140
1.0
141
1.0
290
     0
  0
SCALE
  5
19B
102
{ACAD_REACTORS
330
B6
102
}
330
B6
100
AcDbScale
 70
     0
300
1:10_8
140
1.0
141
0.01
290
     0
  0
SCALE
  5
19C
102
{ACAD_REACTORS
330
B6
102
}
330
B6
100
AcDbScale
 70
     0
300
1:1_11_2
140
1.0
141
0.001
290
     0
  0
SCALE
  5
19D
102
{ACAD_REACTORS
330
B6
102
}
330
B6
100
AcDbScale
 70
     0
300
1:50_11
140
1.0
141
50.0
290
     0
  0
SCALE
  5
1B3
102
{ACAD_REACTORS
330
B6
102
}
330
B6
100
AcDbScale
 70
     0
300
1:10_4_2
140
1.0
141
10.0
290
     0
  0
SCALE
  5
19E
102
{ACAD_REACTORS
330
B6
102
}
330
B6
100
AcDbScale
 70
     0
300
1:100_4_1_2
140
1.0
141
0.1
290
     0
  0
SCALE
  5
19F
102
{ACAD_REACTORS
330
B6
102
}
330
B6
100
AcDbScale
 70
     0
300
1:1_7_XREF
140
1.0
141
1.0
290
     0
  0
SCALE
  5
213
102
{ACAD_REACTORS
330
B6
102
}
330
B6
100
AcDbScale
 70
     0
300
1:150
140
1.0
141
0.15
290
     0
1001
ACAD
1000
AcRTDxfName
1000
SCALE
1000
AcRTDxfName
1000
SCALE
1000
AcRTDxfName
1000
SCALE
1000
AcRTDxfName
1000
SCALE
1000
AcRTDxfName
1000
SCALE
1000
AcRTDxfName
1000
SCALE
1000
AcRTDxfName
1000
SCALE
1000
AcRTDxfName
1000
SCALE
1000
AcRTDxfName
1000
SCALE
1000
AcRTDxfName
1000
SCALE
1000
AcRTDxfName
1000
SCALE
1000
AcRTDxfName
1000
SCALE
1000
AcRTDxfName
1000
SCALE
1000
AcRTDxfName
1000
SCALE
1000
AcRTDxfName
1000
SCALE
1000
AcRTDxfName
1000
SCALE
1000
AcRTDxfName
1000
SCALE
1000
AcRTDxfName
1000
SCALE
1000
AcRTDxfName
1000
SCALE
1000
AcRTDxfName
1000
SCALE
1000
AcRTDxfName
1000
SCALE
1000
AcRTDxfName
1000
SCALE
1000
AcRTDxfName
1000
SCALE
1000
AcRTDxfName
1000
SCALE
1000
AcRTDxfName
1000
SCALE
1000
AcRTDxfName
1000
SCALE
1000
AcRTDxfName
1000
SCALE
1000
AcRTDxfName
1000
SCALE
1000
AcRTDxfName
1000
SCALE
1000
AcRTDxfName
1000
SCALE
1000
AcRTDxfName
1000
SCALE
1000
AcRTDxfName
1000
SCALE
  0
SCALE
  5
1C3
102
{ACAD_REACTORS
330
B6
102
}
330
B6
100
AcDbScale
 70
     0
300
1:1_3_XREF
140
1.0
141
1.0
290
     0
1001
ACAD
1000
AcRTDxfName
1000
SCALE
1000
AcRTDxfName
1000
SCALE
1000
AcRTDxfName
1000
SCALE
1000
AcRTDxfName
1000
SCALE
1000
AcRTDxfName
1000
SCALE
  0
SCALE
  5
1A0
102
{ACAD_REACTORS
330
B6
102
}
330
B6
100
AcDbScale
 70
     0
300
1:1_17
140
1.0
141
0.001
290
     0
  0
SCALE
  5
159
102
{ACAD_REACTORS
330
B6
102
}
330
B6
100
AcDbScale
 70
     0
300
1:100_13
140
1.0
141
0.1
290
     0
  0
SCALE
  5
1A1
102
{ACAD_REACTORS
330
B6
102
}
330
B6
100
AcDbScale
 70
     0
300
1:20_13
140
1.0
141
0.02
290
     0
  0
SCALE
  5
1A2
102
{ACAD_REACTORS
330
B6
102
}
330
B6
100
AcDbScale
 70
     0
300
1:100_4
140
1.0
141
0.1
290
     0
  0
SCALE
  5
1A3
102
{ACAD_REACTORS
330
B6
102
}
330
B6
100
AcDbScale
 70
     0
300
1:100_9
140
1.0
141
0.1
290
     0
  0
SCALE
  5
1A4
102
{ACAD_REACTORS
330
B6
102
}
330
B6
100
AcDbScale
 70
     0
300
1:1_12_1
140
1.0
141
0.001
290
     0
  0
SCALE
  5
214
102
{ACAD_REACTORS
330
B6
102
}
330
B6
100
AcDbScale
 70
     0
300
1:200
140
1.0
141
0.2
290
     0
1001
ACAD
1000
AcRTDxfName
1000
SCALE
1000
AcRTDxfName
1000
SCALE
1000
AcRTDxfName
1000
SCALE
1000
AcRTDxfName
1000
SCALE
1000
AcRTDxfName
1000
SCALE
1000
AcRTDxfName
1000
SCALE
1000
AcRTDxfName
1000
SCALE
1000
AcRTDxfName
1000
SCALE
1000
AcRTDxfName
1000
SCALE
1000
AcRTDxfName
1000
SCALE
1000
AcRTDxfName
1000
SCALE
1000
AcRTDxfName
1000
SCALE
1000
AcRTDxfName
1000
SCALE
1000
AcRTDxfName
1000
SCALE
1000
AcRTDxfName
1000
SCALE
1000
AcRTDxfName
1000
SCALE
1000
AcRTDxfName
1000
SCALE
1000
AcRTDxfName
1000
SCALE
1000
AcRTDxfName
1000
SCALE
1000
AcRTDxfName
1000
SCALE
1000
AcRTDxfName
1000
SCALE
1000
AcRTDxfName
1000
SCALE
1000
AcRTDxfName
1000
SCALE
1000
AcRTDxfName
1000
SCALE
1000
AcRTDxfName
1000
SCALE
1000
AcRTDxfName
1000
SCALE
1000
AcRTDxfName
1000
SCALE
1000
AcRTDxfName
1000
SCALE
1000
AcRTDxfName
1000
SCALE
1000
AcRTDxfName
1000
SCALE
1000
AcRTDxfName
1000
SCALE
1000
AcRTDxfName
1000
SCALE
  0
SCALE
  5
1B4
102
{ACAD_REACTORS
330
B6
102
}
330
B6
100
AcDbScale
 70
     0
300
1:1_12_1_2
140
1.0
141
1.0
290
     0
  0
SCALE
  5
1A5
102
{ACAD_REACTORS
330
B6
102
}
330
B6
100
AcDbScale
 70
     0
300
1:2_4
140
1.0
141
0.002
290
     0
  0
SCALE
  5
1A6
102
{ACAD_REACTORS
330
B6
102
}
330
B6
100
AcDbScale
 70
     0
300
1:10_4_3
140
1.0
141
10.0
290
     0
  0
SCALE
  5
1A7
102
{ACAD_REACTORS
330
B6
102
}
330
B6
100
AcDbScale
 70
     0
300
1:1_6
140
1.0
141
1.0
290
     0
  0
SCALE
  5
1C6
102
{ACAD_REACTORS
330
B6
102
}
330
B6
100
AcDbScale
 70
     0
300
1:2_13
140
1.0
141
0.002
290
     0
  0
SCALE
  5
1C7
102
{ACAD_REACTORS
330
B6
102
}
330
B6
100
AcDbScale
 70
     0
300
1:10_4_6
140
1.0
141
10.0
290
     0
  0
SCALE
  5
1C8
102
{ACAD_REACTORS
330
B6
102
}
330
B6
100
AcDbScale
 70
     0
300
1:100_4_1
140
1.0
141
100.0
290
     0
  0
SCALE
  5
216
102
{ACAD_REACTORS
330
B6
102
}
330
B6
100
AcDbScale
 70
     0
300
1:500
140
1.0
141
0.5
290
     0
1001
ACAD
1000
AcRTDxfName
1000
SCALE
1000
AcRTDxfName
1000
SCALE
1000
AcRTDxfName
1000
SCALE
1000
AcRTDxfName
1000
SCALE
1000
AcRTDxfName
1000
SCALE
1000
AcRTDxfName
1000
SCALE
1000
AcRTDxfName
1000
SCALE
1000
AcRTDxfName
1000
SCALE
1000
AcRTDxfName
1000
SCALE
1000
AcRTDxfName
1000
SCALE
1000
AcRTDxfName
1000
SCALE
1000
AcRTDxfName
1000
SCALE
1000
AcRTDxfName
1000
SCALE
1000
AcRTDxfName
1000
SCALE
1000
AcRTDxfName
1000
SCALE
1000
AcRTDxfName
1000
SCALE
1000
AcRTDxfName
1000
SCALE
1000
AcRTDxfName
1000
SCALE
1000
AcRTDxfName
1000
SCALE
1000
AcRTDxfName
1000
SCALE
1000
AcRTDxfName
1000
SCALE
1000
AcRTDxfName
1000
SCALE
1000
AcRTDxfName
1000
SCALE
1000
AcRTDxfName
1000
SCALE
1000
AcRTDxfName
1000
SCALE
1000
AcRTDxfName
1000
SCALE
1000
AcRTDxfName
1000
SCALE
1000
AcRTDxfName
1000
SCALE
1000
AcRTDxfName
1000
SCALE
1000
AcRTDxfName
1000
SCALE
1000
AcRTDxfName
1000
SCALE
1000
AcRTDxfName
1000
SCALE
  0
SCALE
  5
15D
102
{ACAD_REACTORS
330
B6
102
}
330
B6
100
AcDbScale
 70
     0
300
1:5_4_1_1
140
1.0
141
0.005
290
     0
  0
SCALE
  5
1C9
102
{ACAD_REACTORS
330
B6
102
}
330
B6
100
AcDbScale
 70
     0
300
1:100_6
140
1.0
141
100.0
290
     0
  0
SCALE
  5
1CA
102
{ACAD_REACTORS
330
B6
102
}
330
B6
100
AcDbScale
 70
     0
300
1:5_11
140
1.0
141
5.0
290
     0
  0
SCALE
  5
1CB
102
{ACAD_REACTORS
330
B6
102
}
330
B6
100
AcDbScale
 70
     0
300
1:100_4_2
140
1.0
141
100.0
290
     0
  0
SCALE
  5
1CC
102
{ACAD_REACTORS
330
B6
102
}
330
B6
100
AcDbScale
 70
     0
300
1:1_4_6
140
1.0
141
0.001
290
     0
  0
SCALE
  5
1A8
102
{ACAD_REACTORS
330
B6
102
}
330
B6
100
AcDbScale
 70
     0
300
1:2_9
140
1.0
141
0.002
290
     0
  0
SCALE
  5
1CD
102
{ACAD_REACTORS
330
B6
102
}
330
B6
100
AcDbScale
 70
     0
300
1:2_7
140
1.0
141
2.0
290
     0
  0
SCALE
  5
1B5
102
{ACAD_REACTORS
330
B6
102
}
330
B6
100
AcDbScale
 70
     0
300
1:1_3_1
140
1.0
141
1.0
290
     0
  0
SCALE
  5
1CE
102
{ACAD_REACTORS
330
B6
102
}
330
B6
100
AcDbScale
 70
     0
300
1:10_5
140
1.0
141
10.0
290
     0
  0
SCALE
  5
1CF
102
{ACAD_REACTORS
330
B6
102
}
330
B6
100
AcDbScale
 70
     0
300
1:1_10_1
140
1.0
141
0.001
290
     0
  0
SCALE
  5
1D0
102
{ACAD_REACTORS
330
B6
102
}
330
B6
100
AcDbScale
 70
     0
300
1:20_13_20
140
1.0
141
20.0
290
     0
  0
SCALE
  5
1BD
102
{ACAD_REACTORS
330
B6
102
}
330
B6
100
AcDbScale
 70
     0
300
1:1_10
140
1.0
141
1.0
290
     0
  0
SCALE
  5
1D1
102
{ACAD_REACTORS
330
B6
102
}
330
B6
100
AcDbScale
 70
     0
300
1:50_4_2
140
1.0
141
50.0
290
     0
  0
SCALE
  5
1D2
102
{ACAD_REACTORS
330
B6
102
}
330
B6
100
AcDbScale
 70
     0
300
1:20_12
140
1.0
141
20.0
290
     0
  0
SCALE
  5
15E
102
{ACAD_REACTORS
330
B6
102
}
330
B6
100
AcDbScale
 70
     0
300
1:100_4_4
140
1.0
141
100.0
290
     0
  0
SCALE
  5
1D3
102
{ACAD_REACTORS
330
B6
102
}
330
B6
100
AcDbScale
 70
     0
300
1:2_3_1
140
1.0
141
0.002
290
     0
  0
SCALE
  5
1C4
102
{ACAD_REACTORS
330
B6
102
}
330
B6
100
AcDbScale
 70
     0
300
1:1_9_1
140
1.0
141
0.001
290
     0
  0
SCALE
  5
1D4
102
{ACAD_REACTORS
330
B6
102
}
330
B6
100
AcDbScale
 70
     0
300
1:1_14
140
1.0
141
1.0
290
     0
  0
SCALE
  5
1D5
102
{ACAD_REACTORS
330
B6
102
}
330
B6
100
AcDbScale
 70
     0
300
1:20_4_6
140
1.0
141
0.02
290
     0
  0
SCALE
  5
1D6
102
{ACAD_REACTORS
330
B6
102
}
330
B6
100
AcDbScale
 70
     0
300
1:50_7
140
1.0
141
50.0
290
     0
  0
SCALE
  5
1B6
102
{ACAD_REACTORS
330
B6
102
}
330
B6
100
AcDbScale
 70
     0
300
1:500000
140
1.0
141
500.0
290
     0
1001
ACAD
1000
AcRTDxfName
1000
SCALE
1000
AcRTDxfName
1000
SCALE
1000
AcRTDxfName
1000
SCALE
1000
AcRTDxfName
1000
SCALE
1000
AcRTDxfName
1000
SCALE
1000
AcRTDxfName
1000
SCALE
1000
AcRTDxfName
1000
SCALE
1000
AcRTDxfName
1000
SCALE
1000
AcRTDxfName
1000
SCALE
1000
AcRTDxfName
1000
SCALE
1000
AcRTDxfName
1000
SCALE
1000
AcRTDxfName
1000
SCALE
1000
AcRTDxfName
1000
SCALE
1000
AcRTDxfName
1000
SCALE
1000
AcRTDxfName
1000
SCALE
1000
AcRTDxfName
1000
SCALE
1000
AcRTDxfName
1000
SCALE
1000
AcRTDxfName
1000
SCALE
1000
AcRTDxfName
1000
SCALE
1000
AcRTDxfName
1000
SCALE
1000
AcRTDxfName
1000
SCALE
1000
AcRTDxfName
1000
SCALE
1000
AcRTDxfName
1000
SCALE
1000
AcRTDxfName
1000
SCALE
1000
AcRTDxfName
1000
SCALE
1000
AcRTDxfName
1000
SCALE
1000
AcRTDxfName
1000
SCALE
1000
AcRTDxfName
1000
SCALE
1000
AcRTDxfName
1000
SCALE
1000
AcRTDxfName
1000
SCALE
1000
AcRTDxfName
1000
SCALE
1000
AcRTDxfName
1000
SCALE
1000
AcRTDxfName
1000
SCALE
1000
AcRTDxfName
1000
SCALE
1000
AcRTDxfName
1000
SCALE
1000
AcRTDxfName
1000
SCALE
  0
SCALE
  5
1D7
102
{ACAD_REACTORS
330
B6
102
}
330
B6
100
AcDbScale
 70
     0
300
1:2_10
140
1.0
141
0.002
290
     0
  0
SCALE
  5
1D8
102
{ACAD_REACTORS
330
B6
102
}
330
B6
100
AcDbScale
 70
     0
300
1:5_12
140
1.0
141
5.0
290
     0
  0
SCALE
  5
217
102
{ACAD_REACTORS
330
B6
102
}
330
B6
100
AcDbScale
 70
     0
300
1:750
140
1.0
141
0.75
290
     0
1001
ACAD
1000
AcRTDxfName
1000
SCALE
1000
AcRTDxfName
1000
SCALE
1000
AcRTDxfName
1000
SCALE
1000
AcRTDxfName
1000
SCALE
1000
AcRTDxfName
1000
SCALE
1000
AcRTDxfName
1000
SCALE
1000
AcRTDxfName
1000
SCALE
1000
AcRTDxfName
1000
SCALE
1000
AcRTDxfName
1000
SCALE
1000
AcRTDxfName
1000
SCALE
1000
AcRTDxfName
1000
SCALE
1000
AcRTDxfName
1000
SCALE
1000
AcRTDxfName
1000
SCALE
1000
AcRTDxfName
1000
SCALE
1000
AcRTDxfName
1000
SCALE
1000
AcRTDxfName
1000
SCALE
1000
AcRTDxfName
1000
SCALE
1000
AcRTDxfName
1000
SCALE
1000
AcRTDxfName
1000
SCALE
1000
AcRTDxfName
1000
SCALE
1000
AcRTDxfName
1000
SCALE
1000
AcRTDxfName
1000
SCALE
1000
AcRTDxfName
1000
SCALE
1000
AcRTDxfName
1000
SCALE
1000
AcRTDxfName
1000
SCALE
1000
AcRTDxfName
1000
SCALE
1000
AcRTDxfName
1000
SCALE
1000
AcRTDxfName
1000
SCALE
1000
AcRTDxfName
1000
SCALE
1000
AcRTDxfName
1000
SCALE
1000
AcRTDxfName
1000
SCALE
1000
AcRTDxfName
1000
SCALE
  0
SCALE
  5
1D9
102
{ACAD_REACTORS
330
B6
102
}
330
B6
100
AcDbScale
 70
     0
300
1:50_4_1
140
1.0
141
50.0
290
     0
  0
SCALE
  5
1DA
102
{ACAD_REACTORS
330
B6
102
}
330
B6
100
AcDbScale
 70
     0
300
1:5_7
140
1.0
141
5.0
290
     0
  0
SCALE
  5
1DB
102
{ACAD_REACTORS
330
B6
102
}
330
B6
100
AcDbScale
 70
     0
300
1:20_5
140
1.0
141
20.0
290
     0
  0
SCALE
  5
1A9
102
{ACAD_REACTORS
330
B6
102
}
330
B6
100
AcDbScale
 70
     0
300
1:1_9_XREF
140
1.0
141
1.0
290
     0
1001
ACAD
1000
AcRTDxfName
1000
SCALE
1000
AcRTDxfName
1000
SCALE
  0
SCALE
  5
1DC
102
{ACAD_REACTORS
330
B6
102
}
330
B6
100
AcDbScale
 70
     0
300
1:50_3_1_1
140
1.0
141
0.05
290
     0
  0
SCALE
  5
15F
102
{ACAD_REACTORS
330
B6
102
}
330
B6
100
AcDbScale
 70
     0
300
1:5_4_5
140
1.0
141
5.0
290
     0
  0
SCALE
  5
1DD
102
{ACAD_REACTORS
330
B6
102
}
330
B6
100
AcDbScale
 70
     0
300
1:1_8_XREF
140
1.0
141
1.0
290
     0
1001
ACAD
1000
AcRTDxfName
1000
SCALE
1000
AcRTDxfName
1000
SCALE
1000
AcRTDxfName
1000
SCALE
1000
AcRTDxfName
1000
SCALE
1000
AcRTDxfName
1000
SCALE
1000
AcRTDxfName
1000
SCALE
  0
SCALE
  5
1DE
102
{ACAD_REACTORS
330
B6
102
}
330
B6
100
AcDbScale
 70
     0
300
1:50_4_6
140
1.0
141
0.05
290
     0
  0
SCALE
  5
1DF
102
{ACAD_REACTORS
330
B6
102
}
330
B6
100
AcDbScale
 70
     0
300
1:10_6
140
1.0
141
10.0
290
     0
  0
SCALE
  5
1B7
102
{ACAD_REACTORS
330
B6
102
}
330
B6
100
AcDbScale
 70
     0
300
1:1_9
140
1.0
141
1.0
290
     0
1001
ACAD
1000
AcRTDxfName
1000
SCALE
1000
AcRTDxfName
1000
SCALE
1000
AcRTDxfName
1000
SCALE
1000
AcRTDxfName
1000
SCALE
1000
AcRTDxfName
1000
SCALE
1000
AcRTDxfName
1000
SCALE
  0
SCALE
  5
1E0
102
{ACAD_REACTORS
330
B6
102
}
330
B6
100
AcDbScale
 70
     0
300
1:1_13
140
1.0
141
1.0
290
     0
  0
SCALE
  5
218
102
{ACAD_REACTORS
330
B6
102
}
330
B6
100
AcDbScale
 70
     0
300
1:1250
140
1.0
141
1.25
290
     0
1001
ACAD
1000
AcRTDxfName
1000
SCALE
1000
AcRTDxfName
1000
SCALE
1000
AcRTDxfName
1000
SCALE
1000
AcRTDxfName
1000
SCALE
1000
AcRTDxfName
1000
SCALE
1000
AcRTDxfName
1000
SCALE
1000
AcRTDxfName
1000
SCALE
1000
AcRTDxfName
1000
SCALE
1000
AcRTDxfName
1000
SCALE
1000
AcRTDxfName
1000
SCALE
1000
AcRTDxfName
1000
SCALE
1000
AcRTDxfName
1000
SCALE
1000
AcRTDxfName
1000
SCALE
1000
AcRTDxfName
1000
SCALE
1000
AcRTDxfName
1000
SCALE
1000
AcRTDxfName
1000
SCALE
1000
AcRTDxfName
1000
SCALE
1000
AcRTDxfName
1000
SCALE
1000
AcRTDxfName
1000
SCALE
1000
AcRTDxfName
1000
SCALE
1000
AcRTDxfName
1000
SCALE
1000
AcRTDxfName
1000
SCALE
1000
AcRTDxfName
1000
SCALE
1000
AcRTDxfName
1000
SCALE
1000
AcRTDxfName
1000
SCALE
1000
AcRTDxfName
1000
SCALE
1000
AcRTDxfName
1000
SCALE
1000
AcRTDxfName
1000
SCALE
1000
AcRTDxfName
1000
SCALE
1000
AcRTDxfName
1000
SCALE
1000
AcRTDxfName
1000
SCALE
1000
AcRTDxfName
1000
SCALE
  0
SCALE
  5
1E1
102
{ACAD_REACTORS
330
B6
102
}
330
B6
100
AcDbScale
 70
     0
300
1:2_4_6_1
140
1.0
141
0.002
290
     0
  0
SCALE
  5
1E2
102
{ACAD_REACTORS
330
B6
102
}
330
B6
100
AcDbScale
 70
     0
300
1:20_11
140
1.0
141
20.0
290
     0
  0
SCALE
  5
1AA
102
{ACAD_REACTORS
330
B6
102
}
330
B6
100
AcDbScale
 70
     0
300
1:10_4
140
1.0
141
0.01
290
     0
  0
SCALE
  5
1E3
102
{ACAD_REACTORS
330
B6
102
}
330
B6
100
AcDbScale
 70
     0
300
1:10_4_1_1_1
140
1.0
141
10.0
290
     0
  0
SCALE
  5
1E4
102
{ACAD_REACTORS
330
B6
102
}
330
B6
100
AcDbScale
 70
     0
300
1:5_13
140
1.0
141
0.005
290
     0
  0
SCALE
  5
1E5
102
{ACAD_REACTORS
330
B6
102
}
330
B6
100
AcDbScale
 70
     0
300
1:1_4_1
140
1.0
141
0.001
290
     0
  0
SCALE
  5
1E6
102
{ACAD_REACTORS
330
B6
102
}
330
B6
100
AcDbScale
 70
     0
300
1:1_16
140
1.0
141
1.0
290
     0
  0
SCALE
  5
160
102
{ACAD_REACTORS
330
B6
102
}
330
B6
100
AcDbScale
 70
     0
300
1:1_4_5
140
1.0
141
1.0
290
     0
  0
SCALE
  5
1E7
102
{ACAD_REACTORS
330
B6
102
}
330
B6
100
AcDbScale
 70
     0
300
1:5_4_1
140
1.0
141
5.0
290
     0
  0
SCALE
  5
1E8
102
{ACAD_REACTORS
330
B6
102
}
330
B6
100
AcDbScale
 70
     0
300
1:5_10
140
1.0
141
0.005
290
     0
  0
SCALE
  5
1B8
102
{ACAD_REACTORS
330
B6
102
}
330
B6
100
AcDbScale
 70
     0
300
1:1_12_1_1_2
140
1.0
141
0.001
290
     0
  0
SCALE
  5
153
102
{ACAD_REACTORS
330
B6
102
}
330
B6
100
AcDbScale
 70
     0
300
1:10_12
140
1.0
141
10.0
290
     0
  0
SCALE
  5
1E9
102
{ACAD_REACTORS
330
B6
102
}
330
B6
100
AcDbScale
 70
     0
300
1:1_6_XREF
140
1.0
141
1.0
290
     0
1001
ACAD
1000
AcRTDxfName
1000
SCALE
1000
AcRTDxfName
1000
SCALE
1000
AcRTDxfName
1000
SCALE
1000
AcRTDxfName
1000
SCALE
1000
AcRTDxfName
1000
SCALE
  0
SCALE
  5
15A
102
{ACAD_REACTORS
330
B6
102
}
330
B6
100
AcDbScale
 70
     0
300
1:100_4_5
140
1.0
141
100.0
290
     0
  0
SCALE
  5
1EA
102
{ACAD_REACTORS
330
B6
102
}
330
B6
100
AcDbScale
 70
     0
300
1:10_10
140
1.0
141
0.01
290
     0
  0
SCALE
  5
1EB
102
{ACAD_REACTORS
330
B6
102
}
330
B6
100
AcDbScale
 70
     0
300
1:50_12
140
1.0
141
50.0
290
     0
  0
SCALE
  5
1EC
102
{ACAD_REACTORS
330
B6
102
}
330
B6
100
AcDbScale
 70
     0
300
1:50_13
140
1.0
141
0.05
290
     0
  0
SCALE
  5
1ED
102
{ACAD_REACTORS
330
B6
102
}
330
B6
100
AcDbScale
 70
     0
300
1:100_3_1
140
1.0
141
0.1
290
     0
  0
SCALE
  5
1EE
102
{ACAD_REACTORS
330
B6
102
}
330
B6
100
AcDbScale
 70
     0
300
1:5_3_2
140
1.0
141
5.0
290
     0
  0
SCALE
  5
1EF
102
{ACAD_REACTORS
330
B6
102
}
330
B6
100
AcDbScale
 70
     0
300
1:2_4_5
140
1.0
141
2.0
290
     0
  0
SCALE
  5
1F0
102
{ACAD_REACTORS
330
B6
102
}
330
B6
100
AcDbScale
 70
     0
300
1:2_5
140
1.0
141
2.0
290
     0
  0
SCALE
  5
161
102
{ACAD_REACTORS
330
B6
102
}
330
B6
100
AcDbScale
 70
     0
300
1:10_4_5
140
1.0
141
10.0
290
     0
  0
SCALE
  5
1F1
102
{ACAD_REACTORS
330
B6
102
}
330
B6
100
AcDbScale
 70
     0
300
1:10_7
140
1.0
141
10.0
290
     0
  0
SCALE
  5
165
102
{ACAD_REACTORS
330
B6
102
}
330
B6
100
AcDbScale
 70
     0
300
1:20_3_1
140
1.0
141
20.0
290
     0
  0
SCALE
  5
1AB
102
{ACAD_REACTORS
330
B6
102
}
330
B6
100
AcDbScale
 70
     0
300
1:20_4_3
140
1.0
141
20.0
290
     0
  0
SCALE
  5
1B9
102
{ACAD_REACTORS
330
B6
102
}
330
B6
100
AcDbScale
 70
     0
300
1:10_9
140
1.0
141
0.01
290
     0
  0
SCALE
  5
1F2
102
{ACAD_REACTORS
330
B6
102
}
330
B6
100
AcDbScale
 70
     0
300
1:100_11
140
1.0
141
100.0
290
     0
  0
SCALE
  5
1F3
102
{ACAD_REACTORS
330
B6
102
}
330
B6
100
AcDbScale
 70
     0
300
1:20_4_7
140
1.0
141
20.0
290
     0
  0
SCALE
  5
1F4
102
{ACAD_REACTORS
330
B6
102
}
330
B6
100
AcDbScale
 70
     0
300
1:1_9_2
140
1.0
141
0.001
290
     0
  0
SCALE
  5
1F5
102
{ACAD_REACTORS
330
B6
102
}
330
B6
100
AcDbScale
 70
     0
300
1:1_11_1
140
1.0
141
0.001
290
     0
  0
SCALE
  5
1F6
102
{ACAD_REACTORS
330
B6
102
}
330
B6
100
AcDbScale
 70
     0
300
1:2_4_4
140
1.0
141
2.0
290
     0
  0
SCALE
  5
1F7
102
{ACAD_REACTORS
330
B6
102
}
330
B6
100
AcDbScale
 70
     0
300
1:1_4_XREF
140
1.0
141
1.0
290
     0
1001
ACAD
1000
AcRTDxfName
1000
SCALE
1000
AcRTDxfName
1000
SCALE
1000
AcRTDxfName
1000
SCALE
1000
AcRTDxfName
1000
SCALE
1000
AcRTDxfName
1000
SCALE
  0
SCALE
  5
1F8
102
{ACAD_REACTORS
330
B6
102
}
330
B6
100
AcDbScale
 70
     0
300
1:20_6
140
1.0
141
20.0
290
     0
  0
SCALE
  5
1F9
102
{ACAD_REACTORS
330
B6
102
}
330
B6
100
AcDbScale
 70
     0
300
1:1000
140
1.0
141
1.0
290
     0
1001
ACAD
1000
AcRTDxfName
1000
SCALE
1000
AcRTDxfName
1000
SCALE
1000
AcRTDxfName
1000
SCALE
1000
AcRTDxfName
1000
SCALE
1000
AcRTDxfName
1000
SCALE
1000
AcRTDxfName
1000
SCALE
1000
AcRTDxfName
1000
SCALE
1000
AcRTDxfName
1000
SCALE
1000
AcRTDxfName
1000
SCALE
1000
AcRTDxfName
1000
SCALE
1000
AcRTDxfName
1000
SCALE
1000
AcRTDxfName
1000
SCALE
1000
AcRTDxfName
1000
SCALE
1000
AcRTDxfName
1000
SCALE
1000
AcRTDxfName
1000
SCALE
1000
AcRTDxfName
1000
SCALE
1000
AcRTDxfName
1000
SCALE
1000
AcRTDxfName
1000
SCALE
1000
AcRTDxfName
1000
SCALE
1000
AcRTDxfName
1000
SCALE
1000
AcRTDxfName
1000
SCALE
1000
AcRTDxfName
1000
SCALE
1000
AcRTDxfName
1000
SCALE
1000
AcRTDxfName
1000
SCALE
1000
AcRTDxfName
1000
SCALE
1000
AcRTDxfName
1000
SCALE
1000
AcRTDxfName
1000
SCALE
1000
AcRTDxfName
1000
SCALE
1000
AcRTDxfName
1000
SCALE
1000
AcRTDxfName
1000
SCALE
1000
AcRTDxfName
1000
SCALE
1000
AcRTDxfName
1000
SCALE
  0
SCALE
  5
1FA
102
{ACAD_REACTORS
330
B6
102
}
330
B6
100
AcDbScale
 70
     0
300
1:1_1
140
1.0
141
1.0
290
     0
1001
ACAD
1000
AcRTDxfName
1000
SCALE
1000
AcRTDxfName
1000
SCALE
1000
AcRTDxfName
1000
SCALE
1000
AcRTDxfName
1000
SCALE
1000
AcRTDxfName
1000
SCALE
1000
AcRTDxfName
1000
SCALE
1000
AcRTDxfName
1000
SCALE
1000
AcRTDxfName
1000
SCALE
1000
AcRTDxfName
1000
SCALE
1000
AcRTDxfName
1000
SCALE
1000
AcRTDxfName
1000
SCALE
1000
AcRTDxfName
1000
SCALE
1000
AcRTDxfName
1000
SCALE
1000
AcRTDxfName
1000
SCALE
1000
AcRTDxfName
1000
SCALE
1000
AcRTDxfName
1000
SCALE
1000
AcRTDxfName
1000
SCALE
1000
AcRTDxfName
1000
SCALE
1000
AcRTDxfName
1000
SCALE
1000
AcRTDxfName
1000
SCALE
1000
AcRTDxfName
1000
SCALE
1000
AcRTDxfName
1000
SCALE
1000
AcRTDxfName
1000
SCALE
1000
AcRTDxfName
1000
SCALE
1000
AcRTDxfName
1000
SCALE
1000
AcRTDxfName
1000
SCALE
1000
AcRTDxfName
1000
SCALE
1000
AcRTDxfName
1000
SCALE
1000
AcRTDxfName
1000
SCALE
1000
AcRTDxfName
1000
SCALE
1000
AcRTDxfName
1000
SCALE
1000
AcRTDxfName
1000
SCALE
  0
SCALE
  5
1AC
102
{ACAD_REACTORS
330
B6
102
}
330
B6
100
AcDbScale
 70
     0
300
1:100_4_3
140
1.0
141
100.0
290
     0
  0
SCALE
  5
219
102
{ACAD_REACTORS
330
B6
102
}
330
B6
100
AcDbScale
 70
     0
300
1:2000
140
1.0
141
2.0
290
     0
1001
ACAD
1000
AcRTDxfName
1000
SCALE
1000
AcRTDxfName
1000
SCALE
1000
AcRTDxfName
1000
SCALE
1000
AcRTDxfName
1000
SCALE
1000
AcRTDxfName
1000
SCALE
1000
AcRTDxfName
1000
SCALE
1000
AcRTDxfName
1000
SCALE
1000
AcRTDxfName
1000
SCALE
1000
AcRTDxfName
1000
SCALE
1000
AcRTDxfName
1000
SCALE
1000
AcRTDxfName
1000
SCALE
1000
AcRTDxfName
1000
SCALE
1000
AcRTDxfName
1000
SCALE
1000
AcRTDxfName
1000
SCALE
1000
AcRTDxfName
1000
SCALE
1000
AcRTDxfName
1000
SCALE
1000
AcRTDxfName
1000
SCALE
1000
AcRTDxfName
1000
SCALE
1000
AcRTDxfName
1000
SCALE
1000
AcRTDxfName
1000
SCALE
1000
AcRTDxfName
1000
SCALE
1000
AcRTDxfName
1000
SCALE
1000
AcRTDxfName
1000
SCALE
1000
AcRTDxfName
1000
SCALE
1000
AcRTDxfName
1000
SCALE
1000
AcRTDxfName
1000
SCALE
1000
AcRTDxfName
1000
SCALE
1000
AcRTDxfName
1000
SCALE
1000
AcRTDxfName
1000
SCALE
1000
AcRTDxfName
1000
SCALE
1000
AcRTDxfName
1000
SCALE
1000
AcRTDxfName
1000
SCALE
  0
SCALE
  5
162
102
{ACAD_REACTORS
330
B6
102
}
330
B6
100
AcDbScale
 70
     0
300
1:1000000
140
1.0
141
1000.0
290
     0
  0
SCALE
  5
1BA
102
{ACAD_REACTORS
330
B6
102
}
330
B6
100
AcDbScale
 70
     0
300
1:20_4
140
1.0
141
0.02
290
     0
  0
SCALE
  5
1FB
102
{ACAD_REACTORS
330
B6
102
}
330
B6
100
AcDbScale
 70
     0
300
1:10_2
140
1.0
141
10.0
290
     0
1001
ACAD
1000
AcRTDxfName
1000
SCALE
1000
AcRTDxfName
1000
SCALE
1000
AcRTDxfName
1000
SCALE
1000
AcRTDxfName
1000
SCALE
1000
AcRTDxfName
1000
SCALE
1000
AcRTDxfName
1000
SCALE
1000
AcRTDxfName
1000
SCALE
1000
AcRTDxfName
1000
SCALE
1000
AcRTDxfName
1000
SCALE
1000
AcRTDxfName
1000
SCALE
1000
AcRTDxfName
1000
SCALE
1000
AcRTDxfName
1000
SCALE
1000
AcRTDxfName
1000
SCALE
1000
AcRTDxfName
1000
SCALE
1000
AcRTDxfName
1000
SCALE
1000
AcRTDxfName
1000
SCALE
1000
AcRTDxfName
1000
SCALE
1000
AcRTDxfName
1000
SCALE
1000
AcRTDxfName
1000
SCALE
1000
AcRTDxfName
1000
SCALE
1000
AcRTDxfName
1000
SCALE
1000
AcRTDxfName
1000
SCALE
1000
AcRTDxfName
1000
SCALE
1000
AcRTDxfName
1000
SCALE
1000
AcRTDxfName
1000
SCALE
1000
AcRTDxfName
1000
SCALE
1000
AcRTDxfName
1000
SCALE
1000
AcRTDxfName
1000
SCALE
1000
AcRTDxfName
1000
SCALE
1000
AcRTDxfName
1000
SCALE
1000
AcRTDxfName
1000
SCALE
1000
AcRTDxfName
1000
SCALE
  0
SCALE
  5
1FC
102
{ACAD_REACTORS
330
B6
102
}
330
B6
100
AcDbScale
 70
     0
300
1:20_2
140
1.0
141
20.0
290
     0
1001
ACAD
1000
AcRTDxfName
1000
SCALE
1000
AcRTDxfName
1000
SCALE
1000
AcRTDxfName
1000
SCALE
1000
AcRTDxfName
1000
SCALE
1000
AcRTDxfName
1000
SCALE
1000
AcRTDxfName
1000
SCALE
1000
AcRTDxfName
1000
SCALE
1000
AcRTDxfName
1000
SCALE
1000
AcRTDxfName
1000
SCALE
1000
AcRTDxfName
1000
SCALE
1000
AcRTDxfName
1000
SCALE
1000
AcRTDxfName
1000
SCALE
1000
AcRTDxfName
1000
SCALE
1000
AcRTDxfName
1000
SCALE
1000
AcRTDxfName
1000
SCALE
1000
AcRTDxfName
1000
SCALE
1000
AcRTDxfName
1000
SCALE
1000
AcRTDxfName
1000
SCALE
1000
AcRTDxfName
1000
SCALE
1000
AcRTDxfName
1000
SCALE
1000
AcRTDxfName
1000
SCALE
1000
AcRTDxfName
1000
SCALE
1000
AcRTDxfName
1000
SCALE
1000
AcRTDxfName
1000
SCALE
1000
AcRTDxfName
1000
SCALE
1000
AcRTDxfName
1000
SCALE
1000
AcRTDxfName
1000
SCALE
1000
AcRTDxfName
1000
SCALE
1000
AcRTDxfName
1000
SCALE
1000
AcRTDxfName
1000
SCALE
1000
AcRTDxfName
1000
SCALE
1000
AcRTDxfName
1000
SCALE
  0
SCALE
  5
1FD
102
{ACAD_REACTORS
330
B6
102
}
330
B6
100
AcDbScale
 70
     0
300
1:50_2
140
1.0
141
50.0
290
     0
1001
ACAD
1000
AcRTDxfName
1000
SCALE
1000
AcRTDxfName
1000
SCALE
1000
AcRTDxfName
1000
SCALE
1000
AcRTDxfName
1000
SCALE
1000
AcRTDxfName
1000
SCALE
1000
AcRTDxfName
1000
SCALE
1000
AcRTDxfName
1000
SCALE
1000
AcRTDxfName
1000
SCALE
1000
AcRTDxfName
1000
SCALE
1000
AcRTDxfName
1000
SCALE
1000
AcRTDxfName
1000
SCALE
1000
AcRTDxfName
1000
SCALE
1000
AcRTDxfName
1000
SCALE
1000
AcRTDxfName
1000
SCALE
1000
AcRTDxfName
1000
SCALE
1000
AcRTDxfName
1000
SCALE
1000
AcRTDxfName
1000
SCALE
1000
AcRTDxfName
1000
SCALE
1000
AcRTDxfName
1000
SCALE
1000
AcRTDxfName
1000
SCALE
1000
AcRTDxfName
1000
SCALE
1000
AcRTDxfName
1000
SCALE
1000
AcRTDxfName
1000
SCALE
1000
AcRTDxfName
1000
SCALE
1000
AcRTDxfName
1000
SCALE
1000
AcRTDxfName
1000
SCALE
1000
AcRTDxfName
1000
SCALE
1000
AcRTDxfName
1000
SCALE
1000
AcRTDxfName
1000
SCALE
1000
AcRTDxfName
1000
SCALE
1000
AcRTDxfName
1000
SCALE
1000
AcRTDxfName
1000
SCALE
  0
SCALE
  5
1FE
102
{ACAD_REACTORS
330
B6
102
}
330
B6
100
AcDbScale
 70
     0
300
1:5_1
140
1.0
141
5.0
290
     0
1001
ACAD
1000
AcRTDxfName
1000
SCALE
1000
AcRTDxfName
1000
SCALE
1000
AcRTDxfName
1000
SCALE
1000
AcRTDxfName
1000
SCALE
1000
AcRTDxfName
1000
SCALE
1000
AcRTDxfName
1000
SCALE
1000
AcRTDxfName
1000
SCALE
1000
AcRTDxfName
1000
SCALE
1000
AcRTDxfName
1000
SCALE
1000
AcRTDxfName
1000
SCALE
1000
AcRTDxfName
1000
SCALE
1000
AcRTDxfName
1000
SCALE
1000
AcRTDxfName
1000
SCALE
1000
AcRTDxfName
1000
SCALE
1000
AcRTDxfName
1000
SCALE
1000
AcRTDxfName
1000
SCALE
1000
AcRTDxfName
1000
SCALE
1000
AcRTDxfName
1000
SCALE
1000
AcRTDxfName
1000
SCALE
1000
AcRTDxfName
1000
SCALE
1000
AcRTDxfName
1000
SCALE
1000
AcRTDxfName
1000
SCALE
1000
AcRTDxfName
1000
SCALE
1000
AcRTDxfName
1000
SCALE
1000
AcRTDxfName
1000
SCALE
1000
AcRTDxfName
1000
SCALE
1000
AcRTDxfName
1000
SCALE
1000
AcRTDxfName
1000
SCALE
1000
AcRTDxfName
1000
SCALE
1000
AcRTDxfName
1000
SCALE
1000
AcRTDxfName
1000
SCALE
1000
AcRTDxfName
1000
SCALE
  0
SCALE
  5
1FF
102
{ACAD_REACTORS
330
B6
102
}
330
B6
100
AcDbScale
 70
     0
300
1:100_2
140
1.0
141
100.0
290
     0
1001
ACAD
1000
AcRTDxfName
1000
SCALE
1000
AcRTDxfName
1000
SCALE
1000
AcRTDxfName
1000
SCALE
1000
AcRTDxfName
1000
SCALE
1000
AcRTDxfName
1000
SCALE
1000
AcRTDxfName
1000
SCALE
1000
AcRTDxfName
1000
SCALE
1000
AcRTDxfName
1000
SCALE
1000
AcRTDxfName
1000
SCALE
1000
AcRTDxfName
1000
SCALE
1000
AcRTDxfName
1000
SCALE
1000
AcRTDxfName
1000
SCALE
1000
AcRTDxfName
1000
SCALE
1000
AcRTDxfName
1000
SCALE
1000
AcRTDxfName
1000
SCALE
1000
AcRTDxfName
1000
SCALE
1000
AcRTDxfName
1000
SCALE
1000
AcRTDxfName
1000
SCALE
1000
AcRTDxfName
1000
SCALE
1000
AcRTDxfName
1000
SCALE
1000
AcRTDxfName
1000
SCALE
1000
AcRTDxfName
1000
SCALE
1000
AcRTDxfName
1000
SCALE
1000
AcRTDxfName
1000
SCALE
1000
AcRTDxfName
1000
SCALE
1000
AcRTDxfName
1000
SCALE
1000
AcRTDxfName
1000
SCALE
1000
AcRTDxfName
1000
SCALE
1000
AcRTDxfName
1000
SCALE
1000
AcRTDxfName
1000
SCALE
1000
AcRTDxfName
1000
SCALE
1000
AcRTDxfName
1000
SCALE
  0
SCALE
  5
200
102
{ACAD_REACTORS
330
B6
102
}
330
B6
100
AcDbScale
 70
     0
300
1:10_1
140
1.0
141
10.0
290
     0
1001
ACAD
1000
AcRTDxfName
1000
SCALE
1000
AcRTDxfName
1000
SCALE
1000
AcRTDxfName
1000
SCALE
1000
AcRTDxfName
1000
SCALE
1000
AcRTDxfName
1000
SCALE
1000
AcRTDxfName
1000
SCALE
1000
AcRTDxfName
1000
SCALE
1000
AcRTDxfName
1000
SCALE
1000
AcRTDxfName
1000
SCALE
1000
AcRTDxfName
1000
SCALE
1000
AcRTDxfName
1000
SCALE
1000
AcRTDxfName
1000
SCALE
1000
AcRTDxfName
1000
SCALE
1000
AcRTDxfName
1000
SCALE
1000
AcRTDxfName
1000
SCALE
1000
AcRTDxfName
1000
SCALE
1000
AcRTDxfName
1000
SCALE
1000
AcRTDxfName
1000
SCALE
1000
AcRTDxfName
1000
SCALE
1000
AcRTDxfName
1000
SCALE
1000
AcRTDxfName
1000
SCALE
1000
AcRTDxfName
1000
SCALE
1000
AcRTDxfName
1000
SCALE
1000
AcRTDxfName
1000
SCALE
1000
AcRTDxfName
1000
SCALE
1000
AcRTDxfName
1000
SCALE
1000
AcRTDxfName
1000
SCALE
1000
AcRTDxfName
1000
SCALE
1000
AcRTDxfName
1000
SCALE
1000
AcRTDxfName
1000
SCALE
1000
AcRTDxfName
1000
SCALE
1000
AcRTDxfName
1000
SCALE
  0
SCALE
  5
201
102
{ACAD_REACTORS
330
B6
102
}
330
B6
100
AcDbScale
 70
     0
300
1:20_1
140
1.0
141
20.0
290
     0
1001
ACAD
1000
AcRTDxfName
1000
SCALE
1000
AcRTDxfName
1000
SCALE
1000
AcRTDxfName
1000
SCALE
1000
AcRTDxfName
1000
SCALE
1000
AcRTDxfName
1000
SCALE
1000
AcRTDxfName
1000
SCALE
1000
AcRTDxfName
1000
SCALE
1000
AcRTDxfName
1000
SCALE
1000
AcRTDxfName
1000
SCALE
1000
AcRTDxfName
1000
SCALE
1000
AcRTDxfName
1000
SCALE
1000
AcRTDxfName
1000
SCALE
1000
AcRTDxfName
1000
SCALE
1000
AcRTDxfName
1000
SCALE
1000
AcRTDxfName
1000
SCALE
1000
AcRTDxfName
1000
SCALE
1000
AcRTDxfName
1000
SCALE
1000
AcRTDxfName
1000
SCALE
1000
AcRTDxfName
1000
SCALE
1000
AcRTDxfName
1000
SCALE
1000
AcRTDxfName
1000
SCALE
1000
AcRTDxfName
1000
SCALE
1000
AcRTDxfName
1000
SCALE
1000
AcRTDxfName
1000
SCALE
1000
AcRTDxfName
1000
SCALE
1000
AcRTDxfName
1000
SCALE
1000
AcRTDxfName
1000
SCALE
1000
AcRTDxfName
1000
SCALE
1000
AcRTDxfName
1000
SCALE
1000
AcRTDxfName
1000
SCALE
1000
AcRTDxfName
1000
SCALE
1000
AcRTDxfName
1000
SCALE
  0
SCALE
  5
B7
102
{ACAD_REACTORS
330
B6
102
}
330
B6
100
AcDbScale
 70
     0
300
1:1
140
1.0
141
1.0
290
     1
  0
SCALE
  5
124
102
{ACAD_REACTORS
330
B6
102
}
330
B6
100
AcDbScale
 70
     0
300
1:2
140
1.0
141
2.0
290
     0
  0
SCALE
  5
125
102
{ACAD_REACTORS
330
B6
102
}
330
B6
100
AcDbScale
 70
     0
300
1:4
140
1.0
141
4.0
290
     0
  0
SCALE
  5
126
102
{ACAD_REACTORS
330
B6
102
}
330
B6
100
AcDbScale
 70
     0
300
1:5
140
1.0
141
5.0
290
     0
  0
SCALE
  5
127
102
{ACAD_REACTORS
330
B6
102
}
330
B6
100
AcDbScale
 70
     0
300
1:8
140
1.0
141
8.0
290
     0
  0
SCALE
  5
128
102
{ACAD_REACTORS
330
B6
102
}
330
B6
100
AcDbScale
 70
     0
300
1:10
140
1.0
141
10.0
290
     0
  0
SCALE
  5
129
102
{ACAD_REACTORS
330
B6
102
}
330
B6
100
AcDbScale
 70
     0
300
1:16
140
1.0
141
16.0
290
     0
  0
SCALE
  5
12A
102
{ACAD_REACTORS
330
B6
102
}
330
B6
100
AcDbScale
 70
     0
300
1:20
140
1.0
141
20.0
290
     0
  0
SCALE
  5
12B
102
{ACAD_REACTORS
330
B6
102
}
330
B6
100
AcDbScale
 70
     0
300
1:30
140
1.0
141
30.0
290
     0
  0
SCALE
  5
12C
102
{ACAD_REACTORS
330
B6
102
}
330
B6
100
AcDbScale
 70
     0
300
1:40
140
1.0
141
40.0
290
     0
  0
SCALE
  5
12D
102
{ACAD_REACTORS
330
B6
102
}
330
B6
100
AcDbScale
 70
     0
300
1:50
140
1.0
141
50.0
290
     0
  0
SCALE
  5
12E
102
{ACAD_REACTORS
330
B6
102
}
330
B6
100
AcDbScale
 70
     0
300
1:100
140
1.0
141
100.0
290
     0
  0
SCALE
  5
12F
102
{ACAD_REACTORS
330
B6
102
}
330
B6
100
AcDbScale
 70
     0
300
2:1
140
2.0
141
1.0
290
     0
  0
SCALE
  5
130
102
{ACAD_REACTORS
330
B6
102
}
330
B6
100
AcDbScale
 70
     0
300
4:1
140
4.0
141
1.0
290
     0
  0
SCALE
  5
131
102
{ACAD_REACTORS
330
B6
102
}
330
B6
100
AcDbScale
 70
     0
300
8:1
140
8.0
141
1.0
290
     0
  0
SCALE
  5
132
102
{ACAD_REACTORS
330
B6
102
}
330
B6
100
AcDbScale
 70
     0
300
10:1
140
10.0
141
1.0
290
     0
  0
SCALE
  5
133
102
{ACAD_REACTORS
330
B6
102
}
330
B6
100
AcDbScale
 70
     0
300
100:1
140
100.0
141
1.0
290
     0
  0
SCALE
  5
134
102
{ACAD_REACTORS
330
B6
102
}
330
B6
100
AcDbScale
 70
     0
300
1/128" = 1'-0"
140
0.0078125
141
12.0
290
     0
  0
SCALE
  5
135
102
{ACAD_REACTORS
330
B6
102
}
330
B6
100
AcDbScale
 70
     0
300
1/64" = 1'-0"
140
0.015625
141
12.0
290
     0
  0
SCALE
  5
136
102
{ACAD_REACTORS
330
B6
102
}
330
B6
100
AcDbScale
 70
     0
300
1/32" = 1'-0"
140
0.03125
141
12.0
290
     0
  0
SCALE
  5
137
102
{ACAD_REACTORS
330
B6
102
}
330
B6
100
AcDbScale
 70
     0
300
1/16" = 1'-0"
140
0.0625
141
12.0
290
     0
  0
SCALE
  5
138
102
{ACAD_REACTORS
330
B6
102
}
330
B6
100
AcDbScale
 70
     0
300
3/32" = 1'-0"
140
0.09375
141
12.0
290
     0
  0
SCALE
  5
139
102
{ACAD_REACTORS
330
B6
102
}
330
B6
100
AcDbScale
 70
     0
300
1/8" = 1'-0"
140
0.125
141
12.0
290
     0
  0
SCALE
  5
13A
102
{ACAD_REACTORS
330
B6
102
}
330
B6
100
AcDbScale
 70
     0
300
3/16" = 1'-0"
140
0.1875
141
12.0
290
     0
  0
SCALE
  5
13B
102
{ACAD_REACTORS
330
B6
102
}
330
B6
100
AcDbScale
 70
     0
300
1/4" = 1'-0"
140
0.25
141
12.0
290
     0
  0
SCALE
  5
13C
102
{ACAD_REACTORS
330
B6
102
}
330
B6
100
AcDbScale
 70
     0
300
3/8" = 1'-0"
140
0.375
141
12.0
290
     0
  0
SCALE
  5
13D
102
{ACAD_REACTORS
330
B6
102
}
330
B6
100
AcDbScale
 70
     0
300
1/2" = 1'-0"
140
0.5
141
12.0
290
     0
  0
SCALE
  5
13E
102
{ACAD_REACTORS
330
B6
102
}
330
B6
100
AcDbScale
 70
     0
300
3/4" = 1'-0"
140
0.75
141
12.0
290
     0
  0
SCALE
  5
13F
102
{ACAD_REACTORS
330
B6
102
}
330
B6
100
AcDbScale
 70
     0
300
1" = 1'-0"
140
1.0
141
12.0
290
     0
  0
SCALE
  5
140
102
{ACAD_REACTORS
330
B6
102
}
330
B6
100
AcDbScale
 70
     0
300
1-1/2" = 1'-0"
140
1.5
141
12.0
290
     0
  0
SCALE
  5
141
102
{ACAD_REACTORS
330
B6
102
}
330
B6
100
AcDbScale
 70
     0
300
3" = 1'-0"
140
3.0
141
12.0
290
     0
  0
SCALE
  5
142
102
{ACAD_REACTORS
330
B6
102
}
330
B6
100
AcDbScale
 70
     0
300
6" = 1'-0"
140
6.0
141
12.0
290
     0
  0
SCALE
  5
143
102
{ACAD_REACTORS
330
B6
102
}
330
B6
100
AcDbScale
 70
     0
300
1'-0" = 1'-0"
140
12.0
141
12.0
290
     0
  0
TABLESTYLE
  5
87
102
{ACAD_XDICTIONARY
360
104
102
}
102
{ACAD_REACTORS
330
86
102
}
330
86
100
AcDbTableStyle
  3
Standard
 70
     0
 71
     0
 40
0.06
 41
0.06
280
     0
281
     0
  7
Standard
140
0.18
170
     2
 62
     0
 63
     7
283
     0
274
    -2
284
     1
 64
     0
275
    -2
285
     1
 65
     0
276
    -2
286
     1
 66
     0
277
    -2
287
     1
 67
     0
278
    -2
288
     1
 68
     0
279
    -2
289
     1
 69
     0
  7
Standard
140
0.25
170
     5
 62
     0
 63
     7
283
     0
274
    -2
284
     1
 64
     0
275
    -2
285
     1
 65
     0
276
    -2
286
     1
 66
     0
277
    -2
287
     1
 67
     0
278
    -2
288
     1
 68
     0
279
    -2
289
     1
 69
     0
  7
Standard
140
0.18
170
     5
 62
     0
 63
     7
283
     0
274
    -2
284
     1
 64
     0
275
    -2
285
     1
 65
     0
276
    -2
286
     1
 66
     0
277
    -2
287
     1
 67
     0
278
    -2
288
     1
 68
     0
279
    -2
289
     1
 69
     0
  0
VISUALSTYLE
  5
9F
102
{ACAD_REACTORS
330
99
102
}
330
99
100
AcDbVisualStyle
  2
2dWireframe
 70
     4
 71
     0
 72
     2
 73
     1
 90
        0
 40
-0.6
 41
-30.0
 62
     5
 63
     7
 74
     1
 91
        4
 64
     7
 65
   257
 75
     1
175
     1
 42
1.0
 92
        0
 66
   257
 43
1.0
 76
     1
 77
     6
 78
     2
 67
     7
 79
     5
170
     0
171
     0
290
     0
174
     0
 93
        1
 44
0.0
173
     0
291
     0
 45
0.0
1001
ACAD
1000
AcDbSavedByObjectVersion
1070
     0
1000
AcDbSavedByObjectVersion
1070
     0
  0
VISUALSTYLE
  5
A1
102
{ACAD_REACTORS
330
99
102
}
330
99
100
AcDbVisualStyle
  2
3D Hidden
 70
     6
 71
     1
 72
     2
 73
     2
 90
        0
 40
-0.6
 41
-30.0
 62
     5
 63
     7
 74
     2
 91
        2
 64
     7
 65
   257
 75
     2
175
     1
 42
40.0
 92
        0
 66
   257
 43
1.0
 76
     1
 77
     6
 78
     2
 67
     7
 79
     3
170
     0
171
     0
290
     0
174
     0
 93
        1
 44
0.0
173
     0
291
     0
 45
0.0
1001
ACAD
1000
AcDbSavedByObjectVersion
1070
     0
1000
AcDbSavedByObjectVersion
1070
     0
  0
VISUALSTYLE
  5
A0
102
{ACAD_REACTORS
330
99
102
}
330
99
100
AcDbVisualStyle
  2
3dWireframe
 70
     5
 71
     0
 72
     2
 73
     1
 90
        0
 40
-0.6
 41
-30.0
 62
     5
 63
     7
 74
     1
 91
        4
 64
     7
 65
   257
 75
     1
175
     1
 42
1.0
 92
        0
 66
   257
 43
1.0
 76
     1
 77
     6
 78
     2
 67
     7
 79
     5
170
     0
171
     0
290
     0
174
     0
 93
        1
 44
0.0
173
     0
291
     0
 45
0.0
1001
ACAD
1000
AcDbSavedByObjectVersion
1070
     0
1000
AcDbSavedByObjectVersion
1070
     0
  0
VISUALSTYLE
  5
9E
102
{ACAD_REACTORS
330
99
102
}
330
99
100
AcDbVisualStyle
  2
Basic
 70
     7
 71
     1
 72
     0
 73
     1
 90
        0
 40
-0.6
 41
-30.0
 62
     5
 63
     7
 74
     0
 91
        4
 64
     7
 65
   257
 75
     1
175
     1
 42
1.0
 92
        8
 66
     7
 43
1.0
 76
     1
 77
     6
 78
     2
 67
     7
 79
     5
170
     0
171
     0
290
     0
174
     0
 93
        1
 44
0.0
173
     0
291
     1
 45
0.0
1001
ACAD
1000
AcDbSavedByObjectVersion
1070
     0
1000
AcDbSavedByObjectVersion
1070
     0
  0
VISUALSTYLE
  5
A5
102
{ACAD_REACTORS
330
99
102
}
330
99
100
AcDbVisualStyle
  2
Brighten
 70
    12
 71
     2
 72
     2
 73
     1
 90
        0
 40
-0.6
 41
-30.0
 62
     5
 63
     7
 74
     1
 91
        4
 64
     7
 65
   257
 75
     1
175
     1
 42
1.0
 92
        8
 66
     7
 43
1.0
 76
     1
 77
     6
 78
     2
 67
     7
 79
     5
170
     0
171
     0
290
     0
174
     0
 93
        1
 44
50.0
173
     0
291
     1
 45
0.0
1001
ACAD
1000
AcDbSavedByObjectVersion
1070
     0
1000
AcDbSavedByObjectVersion
1070
     0
  0
VISUALSTYLE
  5
A9
102
{ACAD_REACTORS
330
99
102
}
330
99
100
AcDbVisualStyle
  2
ColorChange
 70
    16
 71
     2
 72
     2
 73
     3
 90
        0
 40
-0.6
 41
-30.0
 62
     5
 63
     8
 74
     1
 91
        4
 64
     7
 65
   257
 75
     1
175
     1
 42
1.0
 92
        8
 66
     8
 43
1.0
 76
     1
 77
     6
 78
     2
 67
     7
 79
     5
170
     0
171
     0
290
     0
174
     0
 93
        1
 44
0.0
173
     0
291
     1
 45
0.0
1001
ACAD
1000
AcDbSavedByObjectVersion
1070
     0
1000
AcDbSavedByObjectVersion
1070
     0
  0
VISUALSTYLE
  5
A2
102
{ACAD_REACTORS
330
99
102
}
330
99
100
AcDbVisualStyle
  2
Conceptual
 70
     9
 71
     3
 72
     2
 73
     1
 90
        0
 40
-0.6
 41
-30.0
 62
     5
 63
     7
 74
     2
 91
        2
 64
     7
 65
   257
 75
     1
175
     1
 42
40.0
 92
        8
 66
     7
 43
1.0
 76
     1
 77
     6
 78
     2
 67
     7
 79
     3
170
     0
171
     0
290
     0
174
     0
 93
        1
 44
0.0
173
     0
291
     0
 45
0.0
1001
ACAD
1000
AcDbSavedByObjectVersion
1070
     0
1000
AcDbSavedByObjectVersion
1070
     0
  0
VISUALSTYLE
  5
A4
102
{ACAD_REACTORS
330
99
102
}
330
99
100
AcDbVisualStyle
  2
Dim
 70
    11
 71
     2
 72
     2
 73
     1
 90
        0
 40
-0.6
 41
-30.0
 62
     5
 63
     7
 74
     1
 91
        4
 64
     7
 65
   257
 75
     1
175
     1
 42
1.0
 92
        8
 66
     7
 43
1.0
 76
     1
 77
     6
 78
     2
 67
     7
 79
     5
170
     0
171
     0
290
     0
174
     0
 93
        1
 44
-50.0
173
     0
291
     1
 45
0.0
1001
ACAD
1000
AcDbSavedByObjectVersion
1070
     0
1000
AcDbSavedByObjectVersion
1070
     0
  0
VISUALSTYLE
  5
A8
102
{ACAD_REACTORS
330
99
102
}
330
99
100
AcDbVisualStyle
  2
Facepattern
 70
    15
 71
     2
 72
     2
 73
     1
 90
        0
 40
-0.6
 41
-30.0
 62
     5
 63
     7
 74
     1
 91
        4
 64
     7
 65
   257
 75
     1
175
     1
 42
1.0
 92
        8
 66
     7
 43
1.0
 76
     1
 77
     6
 78
     2
 67
     7
 79
     5
170
     0
171
     0
290
     0
174
     0
 93
        1
 44
0.0
173
     0
291
     1
 45
0.0
1001
ACAD
1000
AcDbSavedByObjectVersion
1070
     0
1000
AcDbSavedByObjectVersion
1070
     0
  0
VISUALSTYLE
  5
9A
102
{ACAD_REACTORS
330
99
102
}
330
99
100
AcDbVisualStyle
  2
Flat
 70
     0
 71
     2
 72
     1
 73
     1
 90
        2
 40
-0.6
 41
30.0
 62
     5
 63
     7
 74
     0
 91
        4
 64
     7
 65
   257
 75
     1
175
     1
 42
1.0
 92
        8
 66
     7
 43
1.0
 76
     1
 77
     6
 78
     2
 67
     7
 79
     5
170
     0
171
     0
290
     0
174
     0
 93
        1
 44
0.0
173
     0
291
     1
 45
0.0
1001
ACAD
1000
AcDbSavedByObjectVersion
1070
     0
1000
AcDbSavedByObjectVersion
1070
     0
  0
VISUALSTYLE
  5
9B
102
{ACAD_REACTORS
330
99
102
}
330
99
100
AcDbVisualStyle
  2
FlatWithEdges
 70
     1
 71
     2
 72
     1
 73
     1
 90
        2
 40
-0.6
 41
30.0
 62
     5
 63
     7
 74
     1
 91
        4
 64
     7
 65
   257
 75
     1
175
     1
 42
1.0
 92
        0
 66
   257
 43
1.0
 76
     1
 77
     6
 78
     2
 67
     7
 79
     5
170
     0
171
     0
290
     0
174
     0
 93
        1
 44
0.0
173
     0
291
     1
 45
0.0
1001
ACAD
1000
AcDbSavedByObjectVersion
1070
     0
1000
AcDbSavedByObjectVersion
1070
     0
  0
VISUALSTYLE
  5
9C
102
{ACAD_REACTORS
330
99
102
}
330
99
100
AcDbVisualStyle
  2
Gouraud
 70
     2
 71
     2
 72
     2
 73
     1
 90
        2
 40
-0.6
 41
30.0
 62
     5
 63
     7
 74
     0
 91
        4
 64
     7
 65
   257
 75
     1
175
     1
 42
1.0
 92
        0
 66
     7
 43
1.0
 76
     1
 77
     6
 78
     2
 67
     7
 79
     5
170
     0
171
     0
290
     0
174
     0
 93
        1
 44
0.0
173
     0
291
     1
 45
0.0
1001
ACAD
1000
AcDbSavedByObjectVersion
1070
     0
1000
AcDbSavedByObjectVersion
1070
     0
  0
VISUALSTYLE
  5
9D
102
{ACAD_REACTORS
330
99
102
}
330
99
100
AcDbVisualStyle
  2
GouraudWithEdges
 70
     3
 71
     2
 72
     2
 73
     1
 90
        2
 40
-0.6
 41
30.0
 62
     5
 63
     7
 74
     1
 91
        4
 64
     7
 65
   257
 75
     1
175
     1
 42
1.0
 92
        0
 66
   257
 43
1.0
 76
     1
 77
     6
 78
     2
 67
     7
 79
     5
170
     0
171
     0
290
     0
174
     0
 93
        1
 44
0.0
173
     0
291
     1
 45
0.0
1001
ACAD
1000
AcDbSavedByObjectVersion
1070
     0
1000
AcDbSavedByObjectVersion
1070
     0
  0
VISUALSTYLE
  5
A7
102
{ACAD_REACTORS
330
99
102
}
330
99
100
AcDbVisualStyle
  2
Linepattern
 70
    14
 71
     2
 72
     2
 73
     1
 90
        0
 40
-0.6
 41
-30.0
 62
     5
 63
     7
 74
     1
 91
        4
 64
     7
 65
   257
 75
     7
175
     7
 42
1.0
 92
        8
 66
     7
 43
1.0
 76
     1
 77
     6
 78
     2
 67
     7
 79
     5
170
     0
171
     0
290
     0
174
     0
 93
        1
 44
0.0
173
     0
291
     1
 45
0.0
1001
ACAD
1000
AcDbSavedByObjectVersion
1070
     0
1000
AcDbSavedByObjectVersion
1070
     0
  0
VISUALSTYLE
  5
A3
102
{ACAD_REACTORS
330
99
102
}
330
99
100
AcDbVisualStyle
  2
Realistic
 70
     8
 71
     2
 72
     2
 73
     1
 90
        0
 40
-0.6
 41
-30.0
 62
     5
 63
     7
 74
     1
 91
        0
 64
     7
 65
   257
 75
     1
175
     1
 42
1.0
 92
        8
 66
     8
 43
1.0
 76
     1
 77
     6
 78
     2
 67
     7
 79
     5
170
     0
171
     0
290
     0
174
     0
 93
       13
 44
0.0
173
     0
291
     0
 45
0.0
1001
ACAD
1000
AcDbSavedByObjectVersion
1070
     0
1000
AcDbSavedByObjectVersion
1070
     0
  0
VISUALSTYLE
  5
A6
102
{ACAD_REACTORS
330
99
102
}
330
99
100
AcDbVisualStyle
  2
Thicken
 70
    13
 71
     2
 72
     2
 73
     1
 90
        0
 40
-0.6
 41
-30.0
 62
     5
 63
     7
 74
     1
 91
        4
 64
     7
 65
   257
 75
     1
175
     1
 42
1.0
 92
       12
 66
     7
 43
1.0
 76
     1
 77
     6
 78
     2
 67
     7
 79
     5
170
     0
171
     0
290
     0
174
     0
 93
        1
 44
0.0
173
     0
291
     1
 45
0.0
1001
ACAD
1000
AcDbSavedByObjectVersion
1070
     0
1000
AcDbSavedByObjectVersion
1070
     0
  0
DICTIONARYVAR
  5
F0
102
{ACAD_REACTORS
330
66
102
}
330
66
100
DictionaryVariables
280
     0
  1
1:1
  0
DICTIONARYVAR
  5
EF
102
{ACAD_REACTORS
330
66
102
}
330
66
100
DictionaryVariables
280
     0
  1
STANDARD
  0
DICTIONARYVAR
  5
89
102
{ACAD_REACTORS
330
66
102
}
330
66
100
DictionaryVariables
280
     0
  1
STANDARD
  0
DICTIONARYVAR
  5
67
102
{ACAD_REACTORS
330
66
102
}
330
66
100
DictionaryVariables
280
     0
  1
2
  0
DICTIONARYVAR
  5
6B
102
{ACAD_REACTORS
330
66
102
}
330
66
100
DictionaryVariables
280
     0
  1
1
  0
DICTIONARYVAR
  5
2A4
102
{ACAD_REACTORS
330
66
102
}
330
66
100
DictionaryVariables
280
     0
  1
0
  0
DICTIONARYVAR
  5
249
102
{ACAD_REACTORS
330
66
102
}
330
66
100
DictionaryVariables
280
     0
  1
0
  0
DICTIONARYVAR
  5
2A2
102
{ACAD_REACTORS
330
66
102
}
330
66
100
DictionaryVariables
280
     0
  1
1
  0
DICTIONARYVAR
  5
2A3
102
{ACAD_REACTORS
330
66
102
}
330
66
100
DictionaryVariables
280
     0
  1
127
  0
DICTIONARY
  5
2CB
330
59
100
AcDbDictionary
280
     1
281
     1
  3
ACAD_XREC_ROUNDTRIP
360
2CC
  0
DICTIONARY
  5
2CD
330
5E
100
AcDbDictionary
280
     1
281
     1
  3
ACAD_XREC_ROUNDTRIP
360
2CE
  0
DICTIONARY
  5
2C9
330
22
100
AcDbDictionary
280
     1
281
     1
  3
ACAD_XREC_ROUNDTRIP
360
2CA
  0
DICTIONARY
  5
2BE
330
97
100
AcDbDictionary
280
     1
281
     1
  3
ACAD_XREC_ROUNDTRIP
360
2BF
  0
DICTIONARY
  5
2BC
330
96
100
AcDbDictionary
280
     1
281
     1
  3
ACAD_XREC_ROUNDTRIP
360
2BD
  0
DICTIONARY
  5
110
330
98
100
AcDbDictionary
280
     1
281
     1
  3
ACAD_XREC_ROUNDTRIP
360
2C0
  3
BUMPTILE
360
112
  3
DIFFUSETILE
360
111
  3
OPACITYTILE
360
113
  3
REFLECTIONTILE
360
114
  0
DICTIONARY
  5
104
330
87
100
AcDbDictionary
280
     1
281
     1
  3
ACAD_ROUNDTRIP_2008_TABLESTYLE_CELLSTYLEMAP
360
2C7
  3
ACAD_XREC_ROUNDTRIP
360
2CF
  0
XRECORD
  5
2CC
102
{ACAD_REACTORS
330
2CB
102
}
330
2CB
100
AcDbXrecord
280
     1
102
SHADEPLOT
 70
     0
102
SHADEPLOTRESLEVEL
 70
     2
102
SHADEPLOTCUSTOMDPI
 70
   300
  0
XRECORD
  5
2CE
102
{ACAD_REACTORS
330
2CD
102
}
330
2CD
100
AcDbXrecord
280
     1
102
SHADEPLOT
 70
     0
102
SHADEPLOTRESLEVEL
 70
     2
102
SHADEPLOTCUSTOMDPI
 70
   300
  0
XRECORD
  5
2CA
102
{ACAD_REACTORS
330
2C9
102
}
330
2C9
100
AcDbXrecord
280
     1
102
SHADEPLOT
 70
     0
102
SHADEPLOTRESLEVEL
 70
     2
102
SHADEPLOTCUSTOMDPI
 70
   300
  0
XRECORD
  5
2BF
102
{ACAD_REACTORS
330
2BE
102
}
330
2BE
100
AcDbXrecord
280
     1
102
MATERIAL
148
0.0
149
0.0
149
0.0
 93
        0
 94
      127
282
     0
 72
     1
 77
     1
171
     1
175
     1
179
     1
273
     0
  0
XRECORD
  5
2BD
102
{ACAD_REACTORS
330
2BC
102
}
330
2BC
100
AcDbXrecord
280
     1
102
MATERIAL
148
0.0
149
0.0
149
0.0
 93
        0
 94
      127
282
     0
 72
     1
 77
     1
171
     1
175
     1
179
     1
273
     0
  0
XRECORD
  5
2C0
102
{ACAD_REACTORS
330
110
102
}
330
110
100
AcDbXrecord
280
     1
102
MATERIAL
148
0.0
149
0.0
149
0.0
 93
        0
 94
      127
282
     0
 72
     1
 77
     1
171
     1
175
     1
179
     1
273
     0
  0
XRECORD
  5
112
102
{ACAD_REACTORS
330
110
102
}
330
110
100
AcDbXrecord
280
     1
270
     1
271
     1
  0
XRECORD
  5
111
102
{ACAD_REACTORS
330
110
102
}
330
110
100
AcDbXrecord
280
     1
270
     1
271
     1
  0
XRECORD
  5
113
102
{ACAD_REACTORS
330
110
102
}
330
110
100
AcDbXrecord
280
     1
270
     1
271
     1
  0
XRECORD
  5
114
102
{ACAD_REACTORS
330
110
102
}
330
110
100
AcDbXrecord
280
     1
270
     1
271
     1
  0
CELLSTYLEMAP
  5
2C7
102
{ACAD_REACTORS
330
104
102
}
330
104
100
AcDbCellStyleMap
 90
        3
300
CELLSTYLE
  1
TABLEFORMAT_BEGIN
 90
        5
170
     1
 91
        0
 92
    32768
 62
   257
 93
        1
300
CONTENTFORMAT
  1
CONTENTFORMAT_BEGIN
 90
        0
 91
        0
 92
      512
 93
        0
300

 40
0.0
140
1.0
 94
        5
 62
     0
340
11
144
0.25
309
CONTENTFORMAT_END
171
     1
301
MARGIN
  1
CELLMARGIN_BEGIN
 40
0.06
 40
0.06
 40
0.06
 40
0.06
 40
0.18
 40
0.18
309
CELLMARGIN_END
 94
        6
 95
        1
302
GRIDFORMAT
  1
GRIDFORMAT_BEGIN
 90
        0
 91
        1
 62
     0
 92
       -2
340
0
 93
        0
 40
0.045
309
GRIDFORMAT_END
 95
        2
302
GRIDFORMAT
  1
GRIDFORMAT_BEGIN
 90
        0
 91
        1
 62
     0
 92
       -2
340
0
 93
        0
 40
0.045
309
GRIDFORMAT_END
 95
        4
302
GRIDFORMAT
  1
GRIDFORMAT_BEGIN
 90
        0
 91
        1
 62
     0
 92
       -2
340
0
 93
        0
 40
0.045
309
GRIDFORMAT_END
 95
        8
302
GRIDFORMAT
  1
GRIDFORMAT_BEGIN
 90
        0
 91
        1
 62
     0
 92
       -2
340
0
 93
        0
 40
0.045
309
GRIDFORMAT_END
 95
       16
302
GRIDFORMAT
  1
GRIDFORMAT_BEGIN
 90
        0
 91
        1
 62
     0
 92
       -2
340
0
 93
        0
 40
0.045
309
GRIDFORMAT_END
 95
       32
302
GRIDFORMAT
  1
GRIDFORMAT_BEGIN
 90
        0
 91
        1
 62
     0
 92
       -2
340
0
 93
        0
 40
0.045
309
GRIDFORMAT_END
309
TABLEFORMAT_END
  1
CELLSTYLE_BEGIN
 90
        1
 91
        1
300
_TITLE
309
CELLSTYLE_END
300
CELLSTYLE
  1
TABLEFORMAT_BEGIN
 90
        5
170
     1
 91
        0
 92
        0
 62
   257
 93
        1
300
CONTENTFORMAT
  1
CONTENTFORMAT_BEGIN
 90
        0
 91
        0
 92
      512
 93
        0
300

 40
0.0
140
1.0
 94
        5
 62
     0
340
11
144
0.18
309
CONTENTFORMAT_END
171
     1
301
MARGIN
  1
CELLMARGIN_BEGIN
 40
0.06
 40
0.06
 40
0.06
 40
0.06
 40
0.18
 40
0.18
309
CELLMARGIN_END
 94
        6
 95
        1
302
GRIDFORMAT
  1
GRIDFORMAT_BEGIN
 90
        0
 91
        1
 62
     0
 92
       -2
340
0
 93
        0
 40
0.045
309
GRIDFORMAT_END
 95
        2
302
GRIDFORMAT
  1
GRIDFORMAT_BEGIN
 90
        0
 91
        1
 62
     0
 92
       -2
340
0
 93
        0
 40
0.045
309
GRIDFORMAT_END
 95
        4
302
GRIDFORMAT
  1
GRIDFORMAT_BEGIN
 90
        0
 91
        1
 62
     0
 92
       -2
340
0
 93
        0
 40
0.045
309
GRIDFORMAT_END
 95
        8
302
GRIDFORMAT
  1
GRIDFORMAT_BEGIN
 90
        0
 91
        1
 62
     0
 92
       -2
340
0
 93
        0
 40
0.045
309
GRIDFORMAT_END
 95
       16
302
GRIDFORMAT
  1
GRIDFORMAT_BEGIN
 90
        0
 91
        1
 62
     0
 92
       -2
340
0
 93
        0
 40
0.045
309
GRIDFORMAT_END
 95
       32
302
GRIDFORMAT
  1
GRIDFORMAT_BEGIN
 90
        0
 91
        1
 62
     0
 92
       -2
340
0
 93
        0
 40
0.045
309
GRIDFORMAT_END
309
TABLEFORMAT_END
  1
CELLSTYLE_BEGIN
 90
        2
 91
        1
300
_HEADER
309
CELLSTYLE_END
300
CELLSTYLE
  1
TABLEFORMAT_BEGIN
 90
        5
170
     1
 91
        0
 92
        0
 62
   257
 93
        1
300
CONTENTFORMAT
  1
CONTENTFORMAT_BEGIN
 90
        0
 91
        0
 92
      512
 93
        0
300

 40
0.0
140
1.0
 94
        2
 62
     0
340
11
144
0.18
309
CONTENTFORMAT_END
171
     1
301
MARGIN
  1
CELLMARGIN_BEGIN
 40
0.06
 40
0.06
 40
0.06
 40
0.06
 40
0.18
 40
0.18
309
CELLMARGIN_END
 94
        6
 95
        1
302
GRIDFORMAT
  1
GRIDFORMAT_BEGIN
 90
        0
 91
        1
 62
     0
 92
       -2
340
0
 93
        0
 40
0.045
309
GRIDFORMAT_END
 95
        2
302
GRIDFORMAT
  1
GRIDFORMAT_BEGIN
 90
        0
 91
        1
 62
     0
 92
       -2
340
0
 93
        0
 40
0.045
309
GRIDFORMAT_END
 95
        4
302
GRIDFORMAT
  1
GRIDFORMAT_BEGIN
 90
        0
 91
        1
 62
     0
 92
       -2
340
0
 93
        0
 40
0.045
309
GRIDFORMAT_END
 95
        8
302
GRIDFORMAT
  1
GRIDFORMAT_BEGIN
 90
        0
 91
        1
 62
     0
 92
       -2
340
0
 93
        0
 40
0.045
309
GRIDFORMAT_END
 95
       16
302
GRIDFORMAT
  1
GRIDFORMAT_BEGIN
 90
        0
 91
        1
 62
     0
 92
       -2
340
0
 93
        0
 40
0.045
309
GRIDFORMAT_END
 95
       32
302
GRIDFORMAT
  1
GRIDFORMAT_BEGIN
 90
        0
 91
        1
 62
     0
 92
       -2
340
0
 93
        0
 40
0.045
309
GRIDFORMAT_END
309
TABLEFORMAT_END
  1
CELLSTYLE_BEGIN
 90
        3
 91
        2
300
_DATA
309
CELLSTYLE_END
  0
XRECORD
  5
2CF
102
{ACAD_REACTORS
330
104
102
}
330
104
100
AcDbXrecord
280
     1
102
ACAD_ROUNDTRIP_PRE2007_TABLESTYLE
 90
      512
 91
        0
  1

 92
      512
 93
        0
  2

 94
      512
 95
        0
  3

  0
ENDSEC
  0
EOF
